  0
SECTION
  2
HEADER
  9
$ACADVER
  1
AC1015
  9
$ACADMAINTVER
 70
     6
  9
$DWGCODEPAGE
  3
ANSI_1254
  9
$INSBASE
 10
0.0
 20
0.0
 30
0.0
  9
$EXTMIN
 10
0.0
 20
0.0
 30
0.0
  9
$EXTMAX
 10
279.4
 20
215.9
 30
0.0
  9
$LIMMIN
 10
0.0
 20
0.0
  9
$LIMMAX
 10
279.4
 20
215.9
  9
$ORTHOMODE
 70
     0
  9
$REGENMODE
 70
     1
  9
$FILLMODE
 70
     1
  9
$QTEXTMODE
 70
     0
  9
$MIRRTEXT
 70
     1
  9
$LTSCALE
 40
1.0
  9
$ATTMODE
 70
     1
  9
$TEXTSIZE
 40
3.5
  9
$TRACEWID
 40
1.0
  9
$TEXTSTYLE
  7
Standard
  9
$CLAYER
  8
0
  9
$CELTYPE
  6
ByLayer
  9
$CECOLOR
 62
   256
  9
$CELTSCALE
 40
1.0
  9
$DISPSILH
 70
     0
  9
$DIMSCALE
 40
1.0
  9
$DIMASZ
 40
3.5
  9
$DIMEXO
 40
1.0
  9
$DIMDLI
 40
3.75
  9
$DIMRND
 40
0.0
  9
$DIMDLE
 40
0.0
  9
$DIMEXE
 40
1.0
  9
$DIMTP
 40
0.0
  9
$DIMTM
 40
0.0
  9
$DIMTXT
 40
3.5
  9
$DIMCEN
 40
2.5
  9
$DIMTSZ
 40
0.0
  9
$DIMTOL
 70
     0
  9
$DIMLIM
 70
     0
  9
$DIMTIH
 70
     1
  9
$DIMTOH
 70
     1
  9
$DIMSE1
 70
     0
  9
$DIMSE2
 70
     0
  9
$DIMTAD
 70
     1
  9
$DIMZIN
 70
     0
  9
$DIMBLK
  1

  9
$DIMASO
 70
     1
  9
$DIMSHO
 70
     1
  9
$DIMPOST
  1

  9
$DIMAPOST
  1

  9
$DIMALT
 70
     0
  9
$DIMALTD
 70
     3
  9
$DIMALTF
 40
0.0393700787
  9
$DIMLFAC
 40
1.0
  9
$DIMTOFL
 70
     1
  9
$DIMTVP
 40
0.0
  9
$DIMTIX
 70
     0
  9
$DIMSOXD
 70
     0
  9
$DIMSAH
 70
     0
  9
$DIMBLK1
  1

  9
$DIMBLK2
  1

  9
$DIMSTYLE
  2
ISO-25
  9
$DIMCLRD
 70
     0
  9
$DIMCLRE
 70
     0
  9
$DIMCLRT
 70
     0
  9
$DIMTFAC
 40
1.0
  9
$DIMGAP
 40
1.524
  9
$DIMJUST
 70
     0
  9
$DIMSD1
 70
     0
  9
$DIMSD2
 70
     0
  9
$DIMTOLJ
 70
     0
  9
$DIMTZIN
 70
     0
  9
$DIMALTZ
 70
     0
  9
$DIMALTTZ
 70
     0
  9
$DIMUPT
 70
     0
  9
$DIMDEC
 70
     2
  9
$DIMTDEC
 70
     2
  9
$DIMALTU
 70
     2
  9
$DIMALTTD
 70
     3
  9
$DIMTXSTY
  7
Standard
  9
$DIMAUNIT
 70
     0
  9
$DIMADEC
 70
     2
  9
$DIMALTRND
 40
0.0
  9
$DIMAZIN
 70
     0
  9
$DIMDSEP
 70
    44
  9
$DIMATFIT
 70
     3
  9
$DIMFRAC
 70
     0
  9
$DIMLDRBLK
  1

  9
$DIMLUNIT
 70
     2
  9
$DIMLWD
 70
    -2
  9
$DIMLWE
 70
    -2
  9
$DIMTMOVE
 70
     0
  9
$LUNITS
 70
     2
  9
$LUPREC
 70
     2
  9
$SKETCHINC
 40
1.0
  9
$FILLETRAD
 40
10.0
  9
$AUNITS
 70
     0
  9
$AUPREC
 70
     2
  9
$MENU
  1
.
  9
$ELEVATION
 40
0.0
  9
$PELEVATION
 40
0.0
  9
$THICKNESS
 40
0.0
  9
$LIMCHECK
 70
     0
  9
$CHAMFERA
 40
0.0
  9
$CHAMFERB
 40
0.0
  9
$CHAMFERC
 40
0.0
  9
$CHAMFERD
 40
0.0
  9
$SKPOLY
 70
     0
  9
$TDCREATE
 40
2459741.61441625
  9
$TDUCREATE
 40
2459741.48941625
  9
$TDUPDATE
 40
2459741.614416424
  9
$TDUUPDATE
 40
2459741.489416424
  9
$TDINDWG
 40
0.0000000116
  9
$TDUSRTIMER
 40
0.0000000116
  9
$USRTIMER
 70
     1
  9
$ANGBASE
 50
0.0
  9
$ANGDIR
 70
     0
  9
$PDMODE
 70
     0
  9
$PDSIZE
 40
-1.0
  9
$PLINEWID
 40
0.0
  9
$SPLFRAME
 70
     0
  9
$SPLINETYPE
 70
     6
  9
$SPLINESEGS
 70
     8
  9
$HANDSEED
  5
13D
  9
$SURFTAB1
 70
     6
  9
$SURFTAB2
 70
     6
  9
$SURFTYPE
 70
     6
  9
$SURFU
 70
     6
  9
$SURFV
 70
     6
  9
$UCSBASE
  2

  9
$UCSNAME
  2

  9
$UCSORG
 10
0.0
 20
0.0
 30
0.0
  9
$UCSXDIR
 10
1.0
 20
0.0
 30
0.0
  9
$UCSYDIR
 10
0.0
 20
1.0
 30
0.0
  9
$UCSORTHOREF
  2

  9
$UCSORTHOVIEW
 70
     0
  9
$UCSORGTOP
 10
0.0
 20
0.0
 30
0.0
  9
$UCSORGBOTTOM
 10
0.0
 20
0.0
 30
0.0
  9
$UCSORGLEFT
 10
0.0
 20
0.0
 30
0.0
  9
$UCSORGRIGHT
 10
0.0
 20
0.0
 30
0.0
  9
$UCSORGFRONT
 10
0.0
 20
0.0
 30
0.0
  9
$UCSORGBACK
 10
0.0
 20
0.0
 30
0.0
  9
$PUCSBASE
  2

  9
$PUCSNAME
  2

  9
$PUCSORG
 10
0.0
 20
0.0
 30
0.0
  9
$PUCSXDIR
 10
1.0
 20
0.0
 30
0.0
  9
$PUCSYDIR
 10
0.0
 20
1.0
 30
0.0
  9
$PUCSORTHOREF
  2

  9
$PUCSORTHOVIEW
 70
     0
  9
$PUCSORGTOP
 10
0.0
 20
0.0
 30
0.0
  9
$PUCSORGBOTTOM
 10
0.0
 20
0.0
 30
0.0
  9
$PUCSORGLEFT
 10
0.0
 20
0.0
 30
0.0
  9
$PUCSORGRIGHT
 10
0.0
 20
0.0
 30
0.0
  9
$PUCSORGFRONT
 10
0.0
 20
0.0
 30
0.0
  9
$PUCSORGBACK
 10
0.0
 20
0.0
 30
0.0
  9
$USERI1
 70
     0
  9
$USERI2
 70
     0
  9
$USERI3
 70
     0
  9
$USERI4
 70
     0
  9
$USERI5
 70
     0
  9
$USERR1
 40
0.0
  9
$USERR2
 40
0.0
  9
$USERR3
 40
0.0
  9
$USERR4
 40
0.0
  9
$USERR5
 40
0.0
  9
$WORLDVIEW
 70
     1
  9
$SHADEDGE
 70
     3
  9
$SHADEDIF
 70
    70
  9
$TILEMODE
 70
     1
  9
$MAXACTVP
 70
    64
  9
$PINSBASE
 10
0.0
 20
0.0
 30
0.0
  9
$PLIMCHECK
 70
     0
  9
$PEXTMIN
 10
1.0000000000E+20
 20
1.0000000000E+20
 30
1.0000000000E+20
  9
$PEXTMAX
 10
-1.0000000000E+20
 20
-1.0000000000E+20
 30
-1.0000000000E+20
  9
$PLIMMIN
 10
0.0
 20
0.0
  9
$PLIMMAX
 10
420.0
 20
297.0
  9
$UNITMODE
 70
     0
  9
$VISRETAIN
 70
     1
  9
$PLINEGEN
 70
     0
  9
$PSLTSCALE
 70
     1
  9
$TREEDEPTH
 70
  3020
  9
$CMLSTYLE
  2
Standard
  9
$CMLJUST
 70
     0
  9
$CMLSCALE
 40
20.0
  9
$PROXYGRAPHICS
 70
     1
  9
$MEASUREMENT
 70
     1
  9
$CELWEIGHT
370
    -1
  9
$ENDCAPS
280
     0
  9
$JOINSTYLE
280
     0
  9
$LWDISPLAY
290
     1
  9
$INSUNITS
 70
     4
  9
$HYPERLINKBASE
  1

  9
$STYLESHEET
  1

  9
$XEDIT
290
     1
  9
$CEPSNTYPE
380
     0
  9
$PSTYLEMODE
290
     1
  9
$FINGERPRINTGUID
  2
{d366aff3-b472-40d3-98f4-3cb1fb3166ae}
  9
$VERSIONGUID
  2
{FAEB1C32-E019-11D5-929B-00C0DF256EC4}
  9
$EXTNAMES
290
     1
  9
$PSVPSCALE
 40
0.0
  9
$OLESTARTUP
290
     0
  0
ENDSEC
  0
SECTION
  2
CLASSES
  0
CLASS
  1
ACDBDICTIONARYWDFLT
  2
AcDbDictionaryWithDefault
  3
ObjectDBX Classes
 90
        0
280
     0
281
     0
  0
CLASS
  1
VISUALSTYLE
  2
AcDbVisualStyle
  3
ObjectDBX Classes
 90
     4095
280
     0
281
     0
  0
CLASS
  1
MATERIAL
  2
AcDbMaterial
  3
ObjectDBX Classes
 90
     1153
280
     0
281
     0
  0
CLASS
  1
SCALE
  2
AcDbScale
  3
ObjectDBX Classes
 90
     1153
280
     0
281
     0
  0
CLASS
  1
TABLESTYLE
  2
AcDbTableStyle
  3
ObjectDBX Classes
 90
     4095
280
     0
281
     0
  0
CLASS
  1
MLEADERSTYLE
  2
AcDbMLeaderStyle
  3
ACDB_MLEADERSTYLE_CLASS
 90
     4095
280
     0
281
     0
  0
CLASS
  1
SUN
  2
AcDbSun
  3
SCENEOE
 90
     1153
280
     0
281
     0
  0
CLASS
  1
ACDBPLACEHOLDER
  2
AcDbPlaceHolder
  3
ObjectDBX Classes
 90
        0
280
     0
281
     0
  0
CLASS
  1
LAYOUT
  2
AcDbLayout
  3
ObjectDBX Classes
 90
        0
280
     0
281
     0
  0
ENDSEC
  0
SECTION
  2
TABLES
  0
TABLE
  2
VPORT
  5
8
330
0
100
AcDbSymbolTable
 70
     1
  0
VPORT
  5
29
330
8
100
AcDbSymbolTableRecord
100
AcDbViewportTableRecord
  2
*Active
 70
     0
 10
0.0
 20
0.0
 11
1.0
 21
1.0
 12
139.7
 22
107.95
 13
0.0
 23
0.0
 14
10.0
 24
10.0
 15
10.0
 25
10.0
 16
0.0
 26
0.0
 36
1.0
 17
0.0
 27
0.0
 37
0.0
 40
215.9
 41
1.2941176471
 42
50.0
 43
0.0
 44
0.0
 50
0.0
 51
0.0
 71
     0
 72
  2000
 73
     1
 74
     3
 75
     0
 76
     0
 77
     0
 78
     0
281
     0
 65
     1
110
0.0
120
0.0
130
0.0
111
1.0
121
0.0
131
0.0
112
0.0
122
1.0
132
0.0
 79
     0
146
0.0
  0
ENDTAB
  0
TABLE
  2
LTYPE
  5
5
330
0
100
AcDbSymbolTable
 70
     6
  0
LTYPE
  5
14
330
5
100
AcDbSymbolTableRecord
100
AcDbLinetypeTableRecord
  2
ByBlock
 70
     0
  3

 72
    65
 73
     0
 40
0.0
  0
LTYPE
  5
15
330
5
100
AcDbSymbolTableRecord
100
AcDbLinetypeTableRecord
  2
ByLayer
 70
     0
  3

 72
    65
 73
     0
 40
0.0
  0
LTYPE
  5
16
330
5
100
AcDbSymbolTableRecord
100
AcDbLinetypeTableRecord
  2
Continuous
 70
     0
  3
Solid line
 72
    65
 73
     0
 40
0.0
  0
LTYPE
  5
6E
330
5
100
AcDbSymbolTableRecord
100
AcDbLinetypeTableRecord
  2
HIDDEN
 70
     0
  3
Hidden __ __ __ __ __ __ __ __ __ __ __ __ __ __
 72
    65
 73
     2
 40
1.905
 49
1.27
 74
     0
 49
-0.635
 74
     0
  0
LTYPE
  5
6F
330
5
100
AcDbSymbolTableRecord
100
AcDbLinetypeTableRecord
  2
PHANTOM
 70
     0
  3
Phantom ______  __  __  ______  __  __  ______
 72
    65
 73
     6
 40
12.7
 49
6.35
 74
     0
 49
-1.27
 74
     0
 49
1.27
 74
     0
 49
-1.27
 74
     0
 49
1.27
 74
     0
 49
-1.27
 74
     0
  0
LTYPE
  5
70
330
5
100
AcDbSymbolTableRecord
100
AcDbLinetypeTableRecord
  2
CENTER
 70
     0
  3
Center ____ _ ____ _ ____ _ ____ _ ____ _ ____
 72
    65
 73
     4
 40
10.16
 49
6.35
 74
     0
 49
-1.27
 74
     0
 49
1.27
 74
     0
 49
-1.27
 74
     0
  0
LTYPE
  5
71
330
5
100
AcDbSymbolTableRecord
100
AcDbLinetypeTableRecord
  2
CENTERX2
 70
     0
  3
Center (2x) ________  __  ________  __  _____
 72
    65
 73
     4
 40
20.32
 49
12.7
 74
     0
 49
-2.54
 74
     0
 49
2.54
 74
     0
 49
-2.54
 74
     0
  0
LTYPE
  5
72
330
5
100
AcDbSymbolTableRecord
100
AcDbLinetypeTableRecord
  2
DOT2
 70
     0
  3
Dot (.5x) ........................................
 72
    65
 73
     2
 40
0.635
 49
0.0
 74
     0
 49
-0.635
 74
     0
  0
ENDTAB
  0
TABLE
  2
LAYER
  5
2
330
0
100
AcDbSymbolTable
 70
    17
  0
LAYER
  5
10
330
2
100
AcDbSymbolTableRecord
100
AcDbLayerTableRecord
  2
0
 70
     0
 62
     7
  6
Continuous
370
    -3
390
F
  0
LAYER
  5
73
330
2
100
AcDbSymbolTableRecord
100
AcDbLayerTableRecord
  2
FORMAT
 70
     0
 62
     7
  6
Continuous
370
    -3
390
F
  0
LAYER
  5
74
330
2
100
AcDbSymbolTableRecord
100
AcDbLayerTableRecord
  2
YARDIMCI_GEOMETRI
 70
     0
 62
    -6
  6
Continuous
290
     0
370
    -3
390
F
  0
LAYER
  5
75
330
2
100
AcDbSymbolTableRecord
100
AcDbLayerTableRecord
  2
SAYFA_CERCEVESI
 70
     0
 62
     7
  6
Continuous
370
    25
390
F
  0
LAYER
  5
76
330
2
100
AcDbSymbolTableRecord
100
AcDbLayerTableRecord
  2
ANTET
 70
     0
 62
     7
  6
Continuous
370
    -3
390
F
  0
LAYER
  5
77
330
2
100
AcDbSymbolTableRecord
100
AcDbLayerTableRecord
  2
OLCU
 70
     0
 62
   150
  6
Continuous
370
    -3
390
F
  0
LAYER
  5
78
330
2
100
AcDbSymbolTableRecord
100
AcDbLayerTableRecord
  2
METIN
 70
     0
 62
    96
  6
Continuous
370
    -3
390
F
  0
LAYER
  5
79
330
2
100
AcDbSymbolTableRecord
100
AcDbLayerTableRecord
  2
BALON
 70
     0
 62
     5
  6
Continuous
370
    -3
390
F
  0
LAYER
  5
7A
330
2
100
AcDbSymbolTableRecord
100
AcDbLayerTableRecord
  2
VURGU
 70
     0
 62
     7
  6
Continuous
370
    -3
390
F
  0
LAYER
  5
7B
330
2
100
AcDbSymbolTableRecord
100
AcDbLayerTableRecord
  2
SILIK
 70
     0
 62
     7
  6
Continuous
370
    -3
390
F
  0
LAYER
  5
7C
330
2
100
AcDbSymbolTableRecord
100
AcDbLayerTableRecord
  2
MODEL
 70
     0
 62
     7
  6
Continuous
370
    -3
390
F
  0
LAYER
  5
7D
330
2
100
AcDbSymbolTableRecord
100
AcDbLayerTableRecord
  2
DETAYLANDıRMA
 70
     0
 62
   190
  6
Continuous
370
    -3
390
F
  0
LAYER
  5
7E
330
2
100
AcDbSymbolTableRecord
100
AcDbLayerTableRecord
  2
TOLERANS
 70
     0
 62
   230
  6
Continuous
370
    -3
390
F
  0
LAYER
  5
7F
330
2
100
AcDbSymbolTableRecord
100
AcDbLayerTableRecord
  2
MERKEZ_CIZGILERI
 70
     0
 62
    30
  6
Continuous
370
    -3
390
F
  0
LAYER
  5
80
330
2
100
AcDbSymbolTableRecord
100
AcDbLayerTableRecord
  2
KESIT-DETAY_CIZGILERI
 70
     0
 62
     7
  6
Continuous
370
    -3
390
F
  0
LAYER
  5
81
330
2
100
AcDbSymbolTableRecord
100
AcDbLayerTableRecord
  2
\U+041E\U+0421\U+0415\U+0412\U+042B\U+0415
 70
     0
 62
     7
  6
Continuous
370
    -3
390
F
  0
LAYER
  5
82
330
2
100
AcDbSymbolTableRecord
100
AcDbLayerTableRecord
  2
\U+0412\U+041E\U+0414\U+042F\U+041D\U+042B\U+0415_\U+0417\U+041D\U+0410\U+041A\U+0418
 70
     0
 62
    11
  6
Continuous
370
    -3
390
F
  0
ENDTAB
  0
TABLE
  2
STYLE
  5
3
330
0
100
AcDbSymbolTable
 70
     1
  0
STYLE
  5
11
330
3
100
AcDbSymbolTableRecord
100
AcDbTextStyleTableRecord
  2
Standard
 70
     0
 40
0.0
 41
1.0
 50
0.0
 71
     0
 42
3.5
  3
txt
  4

  0
ENDTAB
  0
TABLE
  2
VIEW
  5
6
330
0
100
AcDbSymbolTable
 70
     0
  0
ENDTAB
  0
TABLE
  2
UCS
  5
7
330
0
100
AcDbSymbolTable
 70
     0
  0
ENDTAB
  0
TABLE
  2
APPID
  5
9
330
0
100
AcDbSymbolTable
 70
     1
  0
APPID
  5
12
330
9
100
AcDbSymbolTableRecord
100
AcDbRegAppTableRecord
  2
ACAD
 70
     0
  0
ENDTAB
  0
TABLE
  2
DIMSTYLE
  5
A
330
0
100
AcDbSymbolTable
 70
     1
100
AcDbDimStyleTable
  0
DIMSTYLE
105
27
330
A
100
AcDbSymbolTableRecord
100
AcDbDimStyleTableRecord
  2
ISO-25
 70
     0
 41
2.5
 42
0.625
 43
3.75
 44
1.25
 73
     0
 74
     0
 77
     1
 78
     8
140
2.5
141
2.5
143
0.0393700787
147
0.625
171
     3
172
     1
178
     0
271
     2
272
     2
274
     3
278
    44
283
     0
284
     8
340
11
  0
ENDTAB
  0
TABLE
  2
BLOCK_RECORD
  5
1
330
0
100
AcDbSymbolTable
 70
     5
  0
BLOCK_RECORD
  5
1F
330
1
100
AcDbSymbolTableRecord
100
AcDbBlockTableRecord
  2
*Model_Space
340
22
  0
BLOCK_RECORD
  5
1B
330
1
100
AcDbSymbolTableRecord
100
AcDbBlockTableRecord
  2
*Paper_Space
340
1E
  0
BLOCK_RECORD
  5
23
330
1
100
AcDbSymbolTableRecord
100
AcDbBlockTableRecord
  2
*Paper_Space0
340
26
  0
BLOCK_RECORD
  5
C4
330
1
100
AcDbSymbolTableRecord
100
AcDbBlockTableRecord
  2
SW_CENTERMARKSYMBOL_0
340
0
102
{BLKREFS
331
CF
102
}
  0
BLOCK_RECORD
  5
EF
330
1
100
AcDbSymbolTableRecord
100
AcDbBlockTableRecord
  2
SW_CENTERMARKSYMBOL_1
340
0
102
{BLKREFS
331
FA
102
}
  0
BLOCK_RECORD
  5
FB
330
1
100
AcDbSymbolTableRecord
100
AcDbBlockTableRecord
  2
SW_CENTERMARKSYMBOL_2
340
0
102
{BLKREFS
331
106
102
}
  0
BLOCK_RECORD
  5
107
330
1
100
AcDbSymbolTableRecord
100
AcDbBlockTableRecord
  2
SW_CENTERMARKSYMBOL_3
340
0
102
{BLKREFS
331
112
102
}
  0
ENDTAB
  0
ENDSEC
  0
SECTION
  2
BLOCKS
  0
BLOCK
  5
20
330
1F
100
AcDbEntity
  8
0
100
AcDbBlockBegin
  2
*Model_Space
 70
     0
 10
0.0
 20
0.0
 30
0.0
  3
*Model_Space
  1

  0
ENDBLK
  5
21
330
1F
100
AcDbEntity
  8
0
100
AcDbBlockEnd
  0
BLOCK
  5
1C
330
1B
100
AcDbEntity
 67
     1
  8
0
100
AcDbBlockBegin
  2
*Paper_Space
 70
     0
 10
0.0
 20
0.0
 30
0.0
  3
*Paper_Space
  1

  0
ENDBLK
  5
1D
330
1B
100
AcDbEntity
 67
     1
  8
0
100
AcDbBlockEnd
  0
BLOCK
  5
24
330
23
100
AcDbEntity
  8
0
100
AcDbBlockBegin
  2
*Paper_Space0
 70
     0
 10
0.0
 20
0.0
 30
0.0
  3
*Paper_Space0
  1

  0
ENDBLK
  5
25
330
23
100
AcDbEntity
  8
0
100
AcDbBlockEnd
  0
BLOCK
  5
C5
330
C4
100
AcDbEntity
  8
0
100
AcDbBlockBegin
  2
SW_CENTERMARKSYMBOL_0
 70
     0
 10
0.0
 20
0.0
 30
0.0
  3
SW_CENTERMARKSYMBOL_0
  1

  0
LINE
  5
C7
330
C4
100
AcDbEntity
  8
FORMAT
 62
     0
100
AcDbLine
 10
0.0
 20
0.0
 30
0.0
 11
0.0
 21
2.5
 31
0.0
  0
LINE
  5
C8
330
C4
100
AcDbEntity
  8
FORMAT
 62
     0
100
AcDbLine
 10
0.0
 20
0.0
 30
0.0
 11
-2.5
 21
0.0
 31
0.0
  0
LINE
  5
C9
330
C4
100
AcDbEntity
  8
FORMAT
 62
     0
100
AcDbLine
 10
0.0
 20
0.0
 30
0.0
 11
0.0
 21
-2.5
 31
0.0
  0
LINE
  5
CA
330
C4
100
AcDbEntity
  8
FORMAT
 62
     0
100
AcDbLine
 10
0.0
 20
0.0
 30
0.0
 11
2.5
 21
0.0
 31
0.0
  0
LINE
  5
CB
330
C4
100
AcDbEntity
  8
FORMAT
 62
     0
100
AcDbLine
 10
0.0
 20
5.0
 30
0.0
 11
0.0
 21
28.2
 31
0.0
  0
LINE
  5
CC
330
C4
100
AcDbEntity
  8
FORMAT
 62
     0
100
AcDbLine
 10
-5.0
 20
0.0
 30
0.0
 11
-28.2
 21
0.0
 31
0.0
  0
LINE
  5
CD
330
C4
100
AcDbEntity
  8
FORMAT
 62
     0
100
AcDbLine
 10
0.0
 20
-5.0
 30
0.0
 11
0.0
 21
-28.2
 31
0.0
  0
LINE
  5
CE
330
C4
100
AcDbEntity
  8
FORMAT
 62
     0
100
AcDbLine
 10
5.0
 20
0.0
 30
0.0
 11
28.2
 21
0.0
 31
0.0
  0
ENDBLK
  5
C6
330
C4
100
AcDbEntity
  8
0
100
AcDbBlockEnd
  0
BLOCK
  5
F0
330
EF
100
AcDbEntity
  8
0
100
AcDbBlockBegin
  2
SW_CENTERMARKSYMBOL_1
 70
     0
 10
0.0
 20
0.0
 30
0.0
  3
SW_CENTERMARKSYMBOL_1
  1

  0
LINE
  5
F2
330
EF
100
AcDbEntity
  8
FORMAT
 62
     0
100
AcDbLine
 10
0.0
 20
0.0
 30
0.0
 11
0.0
 21
2.5
 31
0.0
  0
LINE
  5
F3
330
EF
100
AcDbEntity
  8
FORMAT
 62
     0
100
AcDbLine
 10
0.0
 20
0.0
 30
0.0
 11
-2.5
 21
0.0
 31
0.0
  0
LINE
  5
F4
330
EF
100
AcDbEntity
  8
FORMAT
 62
     0
100
AcDbLine
 10
0.0
 20
0.0
 30
0.0
 11
0.0
 21
-2.5
 31
0.0
  0
LINE
  5
F5
330
EF
100
AcDbEntity
  8
FORMAT
 62
     0
100
AcDbLine
 10
0.0
 20
0.0
 30
0.0
 11
2.5
 21
0.0
 31
0.0
  0
LINE
  5
F6
330
EF
100
AcDbEntity
  8
FORMAT
 62
     0
100
AcDbLine
 10
0.0
 20
5.0
 30
0.0
 11
0.0
 21
34.0
 31
0.0
  0
LINE
  5
F7
330
EF
100
AcDbEntity
  8
FORMAT
 62
     0
100
AcDbLine
 10
-5.0
 20
0.0
 30
0.0
 11
-34.0
 21
0.0
 31
0.0
  0
LINE
  5
F8
330
EF
100
AcDbEntity
  8
FORMAT
 62
     0
100
AcDbLine
 10
0.0
 20
-5.0
 30
0.0
 11
0.0
 21
-34.0
 31
0.0
  0
LINE
  5
F9
330
EF
100
AcDbEntity
  8
FORMAT
 62
     0
100
AcDbLine
 10
5.0
 20
0.0
 30
0.0
 11
34.0
 21
0.0
 31
0.0
  0
ENDBLK
  5
F1
330
EF
100
AcDbEntity
  8
0
100
AcDbBlockEnd
  0
BLOCK
  5
FC
330
FB
100
AcDbEntity
  8
0
100
AcDbBlockBegin
  2
SW_CENTERMARKSYMBOL_2
 70
     0
 10
0.0
 20
0.0
 30
0.0
  3
SW_CENTERMARKSYMBOL_2
  1

  0
LINE
  5
FE
330
FB
100
AcDbEntity
  8
FORMAT
 62
     0
100
AcDbLine
 10
0.0
 20
0.0
 30
0.0
 11
0.0
 21
2.5
 31
0.0
  0
LINE
  5
FF
330
FB
100
AcDbEntity
  8
FORMAT
 62
     0
100
AcDbLine
 10
0.0
 20
0.0
 30
0.0
 11
-2.5
 21
0.0
 31
0.0
  0
LINE
  5
100
330
FB
100
AcDbEntity
  8
FORMAT
 62
     0
100
AcDbLine
 10
0.0
 20
0.0
 30
0.0
 11
0.0
 21
-2.5
 31
0.0
  0
LINE
  5
101
330
FB
100
AcDbEntity
  8
FORMAT
 62
     0
100
AcDbLine
 10
0.0
 20
0.0
 30
0.0
 11
2.5
 21
0.0
 31
0.0
  0
LINE
  5
102
330
FB
100
AcDbEntity
  8
FORMAT
 62
     0
100
AcDbLine
 10
0.0
 20
5.0
 30
0.0
 11
0.0
 21
9.5
 31
0.0
  0
LINE
  5
103
330
FB
100
AcDbEntity
  8
FORMAT
 62
     0
100
AcDbLine
 10
-5.0
 20
0.0
 30
0.0
 11
-9.5
 21
0.0
 31
0.0
  0
LINE
  5
104
330
FB
100
AcDbEntity
  8
FORMAT
 62
     0
100
AcDbLine
 10
0.0
 20
-5.0
 30
0.0
 11
0.0
 21
-9.5
 31
0.0
  0
LINE
  5
105
330
FB
100
AcDbEntity
  8
FORMAT
 62
     0
100
AcDbLine
 10
5.0
 20
0.0
 30
0.0
 11
9.5
 21
0.0
 31
0.0
  0
ENDBLK
  5
FD
330
FB
100
AcDbEntity
  8
0
100
AcDbBlockEnd
  0
BLOCK
  5
108
330
107
100
AcDbEntity
  8
0
100
AcDbBlockBegin
  2
SW_CENTERMARKSYMBOL_3
 70
     0
 10
0.0
 20
0.0
 30
0.0
  3
SW_CENTERMARKSYMBOL_3
  1

  0
LINE
  5
10A
330
107
100
AcDbEntity
  8
FORMAT
 62
     0
100
AcDbLine
 10
0.0
 20
0.0
 30
0.0
 11
0.0
 21
2.5
 31
0.0
  0
LINE
  5
10B
330
107
100
AcDbEntity
  8
FORMAT
 62
     0
100
AcDbLine
 10
0.0
 20
0.0
 30
0.0
 11
-2.5
 21
0.0
 31
0.0
  0
LINE
  5
10C
330
107
100
AcDbEntity
  8
FORMAT
 62
     0
100
AcDbLine
 10
0.0
 20
0.0
 30
0.0
 11
0.0
 21
-2.5
 31
0.0
  0
LINE
  5
10D
330
107
100
AcDbEntity
  8
FORMAT
 62
     0
100
AcDbLine
 10
0.0
 20
0.0
 30
0.0
 11
2.5
 21
0.0
 31
0.0
  0
LINE
  5
10E
330
107
100
AcDbEntity
  8
FORMAT
 62
     0
100
AcDbLine
 10
0.0
 20
5.0
 30
0.0
 11
0.0
 21
9.5
 31
0.0
  0
LINE
  5
10F
330
107
100
AcDbEntity
  8
FORMAT
 62
     0
100
AcDbLine
 10
-5.0
 20
0.0
 30
0.0
 11
-9.5
 21
0.0
 31
0.0
  0
LINE
  5
110
330
107
100
AcDbEntity
  8
FORMAT
 62
     0
100
AcDbLine
 10
0.0
 20
-5.0
 30
0.0
 11
0.0
 21
-9.5
 31
0.0
  0
LINE
  5
111
330
107
100
AcDbEntity
  8
FORMAT
 62
     0
100
AcDbLine
 10
5.0
 20
0.0
 30
0.0
 11
9.5
 21
0.0
 31
0.0
  0
ENDBLK
  5
109
330
107
100
AcDbEntity
  8
0
100
AcDbBlockEnd
  0
ENDSEC
  0
SECTION
  2
ENTITIES
  0
LINE
  5
83
330
1F
100
AcDbEntity
  8
0
  6
Continuous
 62
     7
370
    25
100
AcDbLine
 10
171.1807140607
 20
30.7384285714
 30
0.0
 11
201.1807140607
 21
30.7384285714
 31
0.0
  0
LINE
  5
84
330
1F
100
AcDbEntity
  8
0
  6
Continuous
 62
     7
370
    25
100
AcDbLine
 10
81.1807140607
 20
30.7384285714
 30
0.0
 11
111.1807140607
 21
30.7384285714
 31
0.0
  0
LINE
  5
85
330
1F
100
AcDbEntity
  8
0
  6
Continuous
 62
     7
370
    25
100
AcDbLine
 10
84.2040618387
 20
119.7384285714
 30
0.0
 11
81.1807140607
 21
119.7384285714
 31
0.0
  0
LINE
  5
86
330
1F
100
AcDbEntity
  8
0
  6
Continuous
 62
     7
370
    25
100
AcDbLine
 10
109.6960347335
 20
119.7384285714
 30
0.0
 11
98.1759792824
 21
119.7384285714
 31
0.0
  0
LINE
  5
87
330
1F
100
AcDbEntity
  8
0
  6
Continuous
 62
     7
370
    25
100
AcDbLine
 10
184.2040618387
 20
119.7384285714
 30
0.0
 11
172.6718894929
 21
119.7384285714
 31
0.0
  0
LINE
  5
88
330
1F
100
AcDbEntity
  8
0
  6
Continuous
 62
     7
370
    25
100
AcDbLine
 10
201.1807140607
 20
119.7384285714
 30
0.0
 11
198.1759792824
 21
119.7384285714
 31
0.0
  0
LINE
  5
89
330
1F
100
AcDbEntity
  8
0
  6
Continuous
 62
     7
370
    25
100
AcDbLine
 10
109.6807140607
 20
187.7384285714
 30
0.0
 11
109.6807140607
 21
119.7275630518
 31
0.0
  0
LINE
  5
8A
330
1F
100
AcDbEntity
  8
0
  6
Continuous
 62
     7
370
    25
100
AcDbLine
 10
172.6807140607
 20
119.7321394157
 30
0.0
 11
172.6807140607
 21
187.7384285714
 31
0.0
  0
LINE
  5
8B
330
1F
100
AcDbEntity
  8
0
  6
Continuous
 62
     7
370
    25
100
AcDbLine
 10
98.1807140607
 20
119.7376918724
 30
0.0
 11
98.1807140607
 21
134.7384285714
 31
0.0
  0
LINE
  5
8C
330
1F
100
AcDbEntity
  8
0
  6
Continuous
 62
     7
370
    25
100
AcDbLine
 10
84.1807140607
 20
134.7384285714
 30
0.0
 11
84.1807140607
 21
119.734766233
 31
0.0
  0
LINE
  5
8D
330
1F
100
AcDbEntity
  8
0
  6
Continuous
 62
     7
370
    25
100
AcDbLine
 10
198.1807140607
 20
119.7376918724
 30
0.0
 11
198.1807140607
 21
134.7384285714
 31
0.0
  0
LINE
  5
8E
330
1F
100
AcDbEntity
  8
0
  6
Continuous
 62
     7
370
    25
100
AcDbLine
 10
184.1807140607
 20
134.7384285714
 30
0.0
 11
184.1807140607
 21
119.734766233
 31
0.0
  0
LINE
  5
8F
330
1F
100
AcDbEntity
  8
0
  6
Continuous
 62
     7
370
    25
100
AcDbLine
 10
201.1807140607
 20
77.2384285714
 30
0.0
 11
81.1807140607
 21
77.2384285714
 31
0.0
  0
LINE
  5
90
330
1F
100
AcDbEntity
  8
0
  6
Continuous
 62
     7
370
    25
100
AcDbLine
 10
81.1807140607
 20
84.2384285714
 30
0.0
 11
81.1807140607
 21
77.2384285714
 31
0.0
  0
LINE
  5
91
330
1F
100
AcDbEntity
  8
0
  6
Continuous
 62
     7
370
    25
100
AcDbLine
 10
201.1807140607
 20
84.2384285714
 30
0.0
 11
81.1807140607
 21
84.2384285714
 31
0.0
  0
LINE
  5
92
330
1F
100
AcDbEntity
  8
0
  6
Continuous
 62
     7
370
    25
100
AcDbLine
 10
201.1807140607
 20
84.2384285714
 30
0.0
 11
201.1807140607
 21
77.2384285714
 31
0.0
  0
LINE
  5
93
330
1F
100
AcDbEntity
  8
0
  6
Continuous
 62
     7
370
    25
100
AcDbLine
 10
81.1807140607
 20
73.2384285714
 30
0.0
 11
81.1807140607
 21
66.2384285714
 31
0.0
  0
LINE
  5
94
330
1F
100
AcDbEntity
  8
0
  6
Continuous
 62
     7
370
    25
100
AcDbLine
 10
201.1807140607
 20
73.2384285714
 30
0.0
 11
81.1807140607
 21
73.2384285714
 31
0.0
  0
LINE
  5
95
330
1F
100
AcDbEntity
  8
0
  6
Continuous
 62
     7
370
    25
100
AcDbLine
 10
201.1807140607
 20
73.2384285714
 30
0.0
 11
201.1807140607
 21
66.2384285714
 31
0.0
  0
LINE
  5
96
330
1F
100
AcDbEntity
  8
0
  6
Continuous
 62
     7
370
    25
100
AcDbLine
 10
201.1807140607
 20
66.2384285714
 30
0.0
 11
81.1807140607
 21
66.2384285714
 31
0.0
  0
SPLINE
  5
97
330
1F
100
AcDbEntity
  8
0
  6
Continuous
 62
     7
370
    25
100
AcDbSpline
210
0.0
220
0.0
230
1.0
 70
     8
 71
     3
 72
    27
 73
    23
 74
     0
 42
0.00000001
 43
0.00000001
 40
0.0
 40
0.0
 40
0.0
 40
0.0
 40
0.0349712688734919
 40
0.0872207737365614
 40
0.1409744098648137
 40
0.1934522009238936
 40
0.2474199974340926
 40
0.300453382979798
 40
0.3550207397457311
 40
0.4080830383659235
 40
0.4627162977139354
 40
0.5152174362392821
 40
0.5692588784876259
 40
0.6214888094731501
 40
0.6752100267263587
 40
0.72787618116806
 40
0.7820418283639085
 40
0.8351744065268677
 40
0.8898587999698915
 40
0.9427649217897286
 40
0.997238384342692
 40
1.0
 40
1.0
 40
1.0
 40
1.0
 10
184.2040618386533
 20
119.7347640496112
 30
0.0
 10
184.2029992903752
 20
119.734925382545
 30
0.0
 10
184.2003492211632
 20
119.7353277580885
 30
0.0
 10
184.419441277075
 20
119.7011314639118
 30
0.0
 10
184.8227711232895
 20
119.6410623007642
 30
0.0
 10
185.4152704173343
 20
119.5593457688738
 30
0.0
 10
186.1629780831068
 20
119.4674193190367
 30
0.0
 10
187.0626417672026
 20
119.3734957731847
 30
0.0
 10
188.0746712433459
 20
119.2897625654673
 30
0.0
 10
189.1864264483424
 20
119.2247244179108
 30
0.0
 10
190.3422783795772
 20
119.187160103678
 30
0.0
 10
191.5289027935306
 20
119.1805373664602
 30
0.0
 10
192.6884480326233
 20
119.2052925546445
 30
0.0
 10
193.8131374245988
 20
119.258742113873
 30
0.0
 10
194.8548704804857
 20
119.3339961356951
 30
0.0
 10
195.805197155267
 20
119.4241244593624
 30
0.0
 10
196.6233197914118
 20
119.5181106437154
 30
0.0
 10
197.2955316032262
 20
119.6065158175481
 30
0.0
 10
197.7956213241247
 20
119.6789341494741
 30
0.0
 10
198.0889314091698
 20
119.7239268708608
 30
0.0
 10
198.2099753647131
 20
119.743005212238
 30
0.0
 10
198.1775441038562
 20
119.7379327079052
 30
0.0
 10
198.1759792824116
 20
119.7376879575209
 30
0.0
  0
SPLINE
  5
98
330
1F
100
AcDbEntity
  8
0
  6
Continuous
 62
     7
370
    25
100
AcDbSpline
210
0.0
220
0.0
230
1.0
 70
     8
 71
     3
 72
    28
 73
    24
 74
     0
 42
0.00000001
 43
0.00000001
 40
0.0
 40
0.0
 40
0.0
 40
0.0
 40
0.0430460411498748
 40
0.0860959980265433
 40
0.1307800890083113
 40
0.1754732552350755
 40
0.2184153126860895
 40
0.261363602540168
 40
0.3052139482674413
 40
0.3490679524354514
 40
0.3997818663635146
 40
0.4504975443161247
 40
0.5022804731560829
 40
0.5540614923190699
 40
0.6130341230984396
 40
0.6719985736630165
 40
0.7331835444075061
 40
0.7943553055167489
 40
0.8372792615534617
 40
0.8802002268987449
 40
0.9243378864857321
 40
0.968473629432589
 40
0.9999999999999999
 40
0.9999999999999999
 40
0.9999999999999999
 40
0.9999999999999999
 10
141.1807140607424
 20
106.670895862432
 30
0.0
 10
140.4410642813678
 20
106.686287661605
 30
0.0
 10
138.9616974396262
 20
106.7170726600815
 30
0.0
 10
136.7364697725968
 20
106.9597375232009
 30
0.0
 10
134.5264769540602
 20
107.3432647492444
 30
0.0
 10
132.3779587331791
 20
107.8593727093831
 30
0.0
 10
130.3270118441932
 20
108.4744263571809
 30
0.0
 10
128.3625161895173
 20
109.1683304646785
 30
0.0
 10
126.4628509852707
 20
109.9321575603229
 30
0.0
 10
124.5369642395564
 20
110.7918205834373
 30
0.0
 10
122.6155390480114
 20
111.7310680576262
 30
0.0
 10
120.7056749044623
 20
112.7407888473236
 30
0.0
 10
118.9047411301183
 20
113.7550721840661
 30
0.0
 10
117.1436257938797
 20
114.800486734734
 30
0.0
 10
115.4658132918662
 20
115.8426100958433
 30
0.0
 10
113.8899987760431
 20
116.8602364132252
 30
0.0
 10
112.515832256894
 20
117.7751255759326
 30
0.0
 10
111.4853931105721
 20
118.4783464285046
 30
0.0
 10
110.7555677713418
 20
118.9834739752364
 30
0.0
 10
110.2500379432222
 20
119.3369416688361
 30
0.0
 10
109.8982869315011
 20
119.5844668947228
 30
0.0
 10
109.7027966485513
 20
119.7228118149526
 30
0.0
 10
109.6980235538596
 20
119.7261645938445
 30
0.0
 10
109.6960347334974
 20
119.7275616067597
 30
0.0
  0
SPLINE
  5
99
330
1F
100
AcDbEntity
  8
0
  6
Continuous
 62
     7
370
    25
100
AcDbSpline
210
0.0
220
0.0
230
1.0
 70
     8
 71
     3
 72
    28
 73
    24
 74
     0
 42
0.00000001
 43
0.00000001
 40
0.0
 40
0.0
 40
0.0
 40
0.0
 40
0.0437740777359346
 40
0.0858593115544651
 40
0.1279463149227313
 40
0.1711934531361359
 40
0.2144437454398259
 40
0.2578611788811631
 40
0.3012820132466088
 40
0.345649408933272
 40
0.3900198985102562
 40
0.4402439474413732
 40
0.4904711515460224
 40
0.5417751781857452
 40
0.5930796261089635
 40
0.651288223197489
 40
0.709489650303287
 40
0.7696872058554279
 40
0.8298623227614152
 40
0.871689897831971
 40
0.9135105096462517
 40
0.9567572563800465
 40
1.0
 40
1.0
 40
1.0
 40
1.0
 10
172.6718894929396
 20
119.7321362701192
 30
0.0
 10
172.6601222745722
 20
119.7238234428513
 30
0.0
 10
172.6370418278743
 20
119.7075185047873
 30
0.0
 10
172.3927950389194
 20
119.5348569161968
 30
0.0
 10
172.0183955329566
 20
119.2717289342968
 30
0.0
 10
171.4908550762146
 20
118.9034923767739
 30
0.0
 10
170.8180181007388
 20
118.4388397354434
 30
0.0
 10
170.008860214798
 20
117.8872327174037
 30
0.0
 10
169.0655567543769
 20
117.2548279526257
 30
0.0
 10
167.9930381788252
 20
116.5500153538007
 30
0.0
 10
166.744398334606
 20
115.7495455203666
 30
0.0
 10
165.3164389724938
 20
114.8619337139015
 30
0.0
 10
163.6887729020027
 20
113.8905384301422
 30
0.0
 10
161.9229168484999
 20
112.8873802141324
 30
0.0
 10
159.9364854974474
 20
111.8269160904613
 30
0.0
 10
157.7266836155809
 20
110.7389136701901
 30
0.0
 10
155.2497545818222
 20
109.6494670353615
 30
0.0
 10
152.5951392517963
 20
108.6459433577101
 30
0.0
 10
150.0525982084202
 20
107.8698364364251
 30
0.0
 10
147.7114656678345
 20
107.320774626509
 30
0.0
 10
145.5929371954304
 20
106.956722311554
 30
0.0
 10
143.4098903177645
 20
106.7174844281152
 30
0.0
 10
141.9237498847122
 20
106.686424905136
 30
0.0
 10
141.1807140607424
 20
106.670895862432
 30
0.0
  0
SPLINE
  5
9A
330
1F
100
AcDbEntity
  8
0
  6
Continuous
 62
     7
370
    25
100
AcDbSpline
210
0.0
220
0.0
230
1.0
 70
     8
 71
     3
 72
    27
 73
    23
 74
     0
 42
0.00000001
 43
0.00000001
 40
0.0
 40
0.0
 40
0.0
 40
0.0
 40
0.0349712688734919
 40
0.0872207737365614
 40
0.1409744098648136
 40
0.1934522009238936
 40
0.2474199974340926
 40
0.300453382979798
 40
0.355020739745731
 40
0.4080830383659235
 40
0.4627162977139354
 40
0.5152174362392821
 40
0.5692588784876259
 40
0.6214888094731501
 40
0.6752100267263587
 40
0.72787618116806
 40
0.7820418283639085
 40
0.8351744065268677
 40
0.8898587999698915
 40
0.9427649217897286
 40
0.997238384342692
 40
1.0
 40
1.0
 40
1.0
 40
1.0
 10
84.20406183865335
 20
119.7347640496112
 30
0.0
 10
84.20299929037525
 20
119.734925382545
 30
0.0
 10
84.20034922116322
 20
119.7353277580885
 30
0.0
 10
84.41944127707501
 20
119.7011314639119
 30
0.0
 10
84.82277112328954
 20
119.6410623007642
 30
0.0
 10
85.41527041733433
 20
119.5593457688738
 30
0.0
 10
86.1629780831068
 20
119.4674193190367
 30
0.0
 10
87.06264176720266
 20
119.3734957731847
 30
0.0
 10
88.07467124334586
 20
119.2897625654673
 30
0.0
 10
89.1864264483424
 20
119.2247244179108
 30
0.0
 10
90.34227837957722
 20
119.187160103678
 30
0.0
 10
91.52890279353062
 20
119.1805373664602
 30
0.0
 10
92.6884480326233
 20
119.2052925546445
 30
0.0
 10
93.81313742459875
 20
119.258742113873
 30
0.0
 10
94.85487048048579
 20
119.3339961356951
 30
0.0
 10
95.805197155267
 20
119.4241244593624
 30
0.0
 10
96.62331979141184
 20
119.5181106437154
 30
0.0
 10
97.29553160322618
 20
119.6065158175481
 30
0.0
 10
97.7956213241247
 20
119.6789341494741
 30
0.0
 10
98.08893140916983
 20
119.7239268708608
 30
0.0
 10
98.20997536471303
 20
119.743005212238
 30
0.0
 10
98.17754410385622
 20
119.7379327079052
 30
0.0
 10
98.17597928241159
 20
119.7376879575209
 30
0.0
  0
LINE
  5
9B
330
1F
100
AcDbEntity
  8
0
  6
Continuous
 62
     7
370
    25
100
AcDbLine
 10
111.1807140607
 20
65.2384285714
 30
0.0
 11
171.1807140607
 21
65.2384285714
 31
0.0
  0
LINE
  5
9C
330
1F
100
AcDbEntity
  8
0
  6
Continuous
 62
     7
370
    25
100
AcDbLine
 10
111.1807140607
 20
30.7384285714
 30
0.0
 11
111.1807140607
 21
65.2384285714
 31
0.0
  0
LINE
  5
9D
330
1F
100
AcDbEntity
  8
0
  6
Continuous
 62
     7
370
    25
100
AcDbLine
 10
171.1807140607
 20
65.2384285714
 30
0.0
 11
171.1807140607
 21
30.7384285714
 31
0.0
  0
LINE
  5
9E
330
1F
100
AcDbEntity
  8
0
  6
Continuous
 62
     7
370
    25
100
AcDbLine
 10
81.1807140607
 20
66.2384285714
 30
0.0
 11
81.1807140607
 21
30.7384285714
 31
0.0
  0
LINE
  5
9F
330
1F
100
AcDbEntity
  8
0
  6
Continuous
 62
     7
370
    25
100
AcDbLine
 10
81.1807140607
 20
119.7384285714
 30
0.0
 11
81.1807140607
 21
84.2384285714
 31
0.0
  0
LINE
  5
A0
330
1F
100
AcDbEntity
  8
0
  6
Continuous
 62
     7
370
    25
100
AcDbLine
 10
201.1807140607
 20
66.2384285714
 30
0.0
 11
201.1807140607
 21
30.7384285714
 31
0.0
  0
LINE
  5
A1
330
1F
100
AcDbEntity
  8
0
  6
Continuous
 62
     7
370
    25
100
AcDbLine
 10
201.1807140607
 20
119.7384285714
 30
0.0
 11
201.1807140607
 21
84.2384285714
 31
0.0
  0
LINE
  5
A2
330
1F
100
AcDbEntity
  8
0
  6
Continuous
 62
     7
370
    25
100
AcDbLine
 10
81.1807140607
 20
77.2384285714
 30
0.0
 11
81.1807140607
 21
73.2384285714
 31
0.0
  0
LINE
  5
A3
330
1F
100
AcDbEntity
  8
0
  6
Continuous
 62
     7
370
    25
100
AcDbLine
 10
201.1807140607
 20
77.2384285714
 30
0.0
 11
201.1807140607
 21
73.2384285714
 31
0.0
  0
LINE
  5
A4
330
1F
100
AcDbEntity
  8
0
  6
Continuous
 62
     7
370
    25
100
AcDbLine
 10
141.1807140607
 20
187.7384285714
 30
0.0
 11
172.6807140607
 21
187.7384285714
 31
0.0
  0
LINE
  5
A5
330
1F
100
AcDbEntity
  8
0
  6
Continuous
 62
     7
370
    25
100
AcDbLine
 10
109.6807140607
 20
187.7384285714
 30
0.0
 11
141.1807140607
 21
187.7384285714
 31
0.0
  0
LINE
  5
A6
330
1F
100
AcDbEntity
  8
0
  6
Continuous
 62
     7
370
    25
100
AcDbLine
 10
98.1807140607
 20
134.7384285714
 30
0.0
 11
84.1807140607
 21
134.7384285714
 31
0.0
  0
LINE
  5
A7
330
1F
100
AcDbEntity
  8
0
  6
Continuous
 62
     7
370
    25
100
AcDbLine
 10
184.1807140607
 20
134.7384285714
 30
0.0
 11
198.1807140607
 21
134.7384285714
 31
0.0
  0
LINE
  5
A8
330
1F
100
AcDbEntity
  8
0
  6
Continuous
 62
     7
370
    25
100
AcDbLine
 10
315.390829836
 20
119.1878533949
 30
0.0
 11
315.390829836
 21
134.7384285714
 31
0.0
  0
LINE
  5
A9
330
1F
100
AcDbEntity
  8
0
  6
Continuous
 62
     7
370
    25
100
AcDbLine
 10
301.390829836
 20
134.7384285714
 30
0.0
 11
301.390829836
 21
119.1844181495
 31
0.0
  0
LINE
  5
AA
330
1F
100
AcDbEntity
  8
0
  6
Continuous
 62
     7
370
    25
100
AcDbLine
 10
276.890829836
 20
187.7384285714
 30
0.0
 11
276.890829836
 21
106.7043103101
 31
0.0
  0
LINE
  5
AB
330
1F
100
AcDbEntity
  8
0
  6
Continuous
 62
     7
370
    25
100
AcDbLine
 10
339.890829836
 20
106.6708958624
 30
0.0
 11
339.890829836
 21
187.7384285714
 31
0.0
  0
LINE
  5
AC
330
1F
100
AcDbEntity
  8
0
  6
Continuous
 62
     7
370
    25
100
AcDbLine
 10
351.9712153322
 20
84.2384285714
 30
0.0
 11
366.9712153322
 21
84.2384285714
 31
0.0
  0
LINE
  5
AD
330
1F
100
AcDbEntity
  8
0
  6
Continuous
 62
     7
370
    25
100
AcDbLine
 10
366.9712153322
 20
84.2384285714
 30
0.0
 11
366.9712153322
 21
77.2384285714
 31
0.0
  0
LINE
  5
AE
330
1F
100
AcDbEntity
  8
0
  6
Continuous
 62
     7
370
    25
100
AcDbLine
 10
366.9712153322
 20
77.2384285714
 30
0.0
 11
345.8374585227
 21
77.2384285714
 31
0.0
  0
ARC
  5
AF
330
1F
100
AcDbEntity
  8
0
  6
Continuous
 62
     7
370
    25
100
AcDbCircle
 10
308.390829836
 20
75.2384285714
 30
0.0
 40
37.50000000000009
100
AcDbArc
 50
3.0572254285
 51
356.9427745715
  0
LINE
  5
B0
330
1F
100
AcDbEntity
  8
0
  6
Continuous
 62
     7
370
    25
100
AcDbLine
 10
345.8374585227
 20
73.2384285714
 30
0.0
 11
366.9712153322
 21
73.2384285714
 31
0.0
  0
LINE
  5
B1
330
1F
100
AcDbEntity
  8
0
  6
Continuous
 62
     7
370
    25
100
AcDbLine
 10
366.9712153322
 20
73.2384285714
 30
0.0
 11
366.9712153322
 21
66.2384285714
 31
0.0
  0
LINE
  5
B2
330
1F
100
AcDbEntity
  8
0
  6
Continuous
 62
     7
370
    25
100
AcDbLine
 10
366.9712153322
 20
66.2384285714
 30
0.0
 11
351.9712153322
 21
66.2384285714
 31
0.0
  0
ARC
  5
B3
330
1F
100
AcDbEntity
  8
0
  6
Continuous
 62
     7
370
    25
100
AcDbCircle
 10
308.390829836
 20
75.2384285714
 30
0.0
 40
44.50000000000006
100
AcDbArc
 50
11.6683994965
 51
348.3316005035
  0
LINE
  5
B4
330
1F
100
AcDbEntity
  8
0
  6
Continuous
 62
     7
370
    25
100
AcDbLine
 10
315.390829836
 20
134.7384285714
 30
0.0
 11
301.390829836
 21
134.7384285714
 31
0.0
  0
LINE
  5
B5
330
1F
100
AcDbEntity
  8
0
  6
Continuous
 62
     7
370
    25
100
AcDbLine
 10
276.890829836
 20
187.7384285714
 30
0.0
 11
339.890829836
 21
187.7384285714
 31
0.0
  0
LINE
  5
B6
330
1F
100
AcDbEntity
  8
0
  6
Continuous
 62
     7
370
    25
100
AcDbLine
 10
81.1807140607
 20
247.7271831985
 30
0.0
 11
201.1807140607
 21
247.7271831985
 31
0.0
  0
LINE
  5
B7
330
1F
100
AcDbEntity
  8
0
  6
Continuous
 62
     7
370
    25
100
AcDbLine
 10
201.1807140607
 20
335.8075686948
 30
0.0
 11
81.1807140607
 21
335.8075686948
 31
0.0
  0
LINE
  5
B8
330
1F
100
AcDbEntity
  8
0
  6
Continuous
 62
     7
370
    25
100
AcDbLine
 10
201.1807140607
 20
335.8075686948
 30
0.0
 11
201.1807140607
 21
247.7271831985
 31
0.0
  0
LINE
  5
B9
330
1F
100
AcDbEntity
  8
0
  6
Continuous
 62
     7
370
    25
100
AcDbLine
 10
81.1807140607
 20
335.8075686948
 30
0.0
 11
81.1807140607
 21
247.7271831985
 31
0.0
  0
LINE
  5
BA
330
1F
100
AcDbEntity
  8
0
  6
Continuous
 62
     7
370
    25
100
AcDbLine
 10
111.1807140607
 20
335.5890327901
 30
0.0
 11
171.1807140607
 21
335.5890327901
 31
0.0
  0
LINE
  5
BB
330
1F
100
AcDbEntity
  8
0
  6
Continuous
 62
     7
370
    25
100
AcDbLine
 10
111.1807140607
 20
248.865333607
 30
0.0
 11
111.1807140607
 21
335.5890327901
 31
0.0
  0
LINE
  5
BC
330
1F
100
AcDbEntity
  8
0
  6
Continuous
 62
     7
370
    25
100
AcDbLine
 10
171.1807140607
 20
248.865333607
 30
0.0
 11
111.1807140607
 21
248.865333607
 31
0.0
  0
LINE
  5
BD
330
1F
100
AcDbEntity
  8
0
  6
Continuous
 62
     7
370
    25
100
AcDbLine
 10
171.1807140607
 20
335.5890327901
 30
0.0
 11
171.1807140607
 21
248.865333607
 31
0.0
  0
SPLINE
  5
BE
330
1F
100
AcDbEntity
  8
0
  6
Continuous
 62
     7
370
    25
100
AcDbSpline
210
0.0
220
0.0
230
1.0
 70
    11
 71
     3
 72
   135
 73
   131
 74
     0
 42
0.00000001
 43
0.00000001
 40
0.0
 40
0.0
 40
0.0
 40
0.0
 40
0.03125
 40
0.03125
 40
0.0390625
 40
0.0390625
 40
0.046875
 40
0.046875
 40
0.0625
 40
0.0625
 40
0.0781250000000001
 40
0.0781250000000001
 40
0.0937500000000001
 40
0.0937500000000001
 40
0.1250000000000001
 40
0.1250000000000001
 40
0.1406250000000002
 40
0.1406250000000002
 40
0.1562500000000003
 40
0.1562500000000003
 40
0.1875000000000005
 40
0.1875000000000005
 40
0.1953125000000006
 40
0.1953125000000006
 40
0.2031250000000006
 40
0.2031250000000006
 40
0.2187500000000007
 40
0.2187500000000007
 40
0.2343750000000007
 40
0.2343750000000007
 40
0.2421875000000007
 40
0.2421875000000007
 40
0.2500000000000008
 40
0.2500000000000008
 40
0.2812500000000009
 40
0.2812500000000009
 40
0.296875000000001
 40
0.296875000000001
 40
0.3125000000000011
 40
0.3125000000000011
 40
0.3281250000000011
 40
0.3281250000000011
 40
0.3359375000000011
 40
0.3359375000000011
 40
0.3437500000000011
 40
0.3437500000000011
 40
0.3750000000000011
 40
0.3750000000000011
 40
0.3828125000000011
 40
0.3828125000000011
 40
0.3906250000000011
 40
0.3906250000000011
 40
0.4062500000000011
 40
0.4062500000000011
 40
0.4218750000000012
 40
0.4218750000000012
 40
0.4296875000000012
 40
0.4296875000000012
 40
0.4375000000000012
 40
0.4375000000000012
 40
0.4687500000000012
 40
0.4687500000000012
 40
0.4765625000000012
 40
0.4765625000000012
 40
0.4843750000000012
 40
0.4843750000000012
 40
0.5000000000000011
 40
0.5156250000000011
 40
0.5156250000000011
 40
0.5234375000000011
 40
0.5234375000000011
 40
0.5312500000000011
 40
0.5312500000000011
 40
0.5468750000000011
 40
0.5468750000000011
 40
0.5546875000000011
 40
0.5546875000000011
 40
0.5625000000000011
 40
0.5625000000000011
 40
0.593750000000001
 40
0.593750000000001
 40
0.6093750000000009
 40
0.6093750000000009
 40
0.6250000000000008
 40
0.6250000000000008
 40
0.6562500000000008
 40
0.6562500000000008
 40
0.6718750000000008
 40
0.6718750000000008
 40
0.6875000000000008
 40
0.6875000000000008
 40
0.7187500000000008
 40
0.7187500000000008
 40
0.7343750000000008
 40
0.7343750000000008
 40
0.7500000000000007
 40
0.7500000000000007
 40
0.7656250000000007
 40
0.7656250000000007
 40
0.7812500000000007
 40
0.7812500000000007
 40
0.7968750000000007
 40
0.7968750000000007
 40
0.8046875000000007
 40
0.8046875000000007
 40
0.8125000000000007
 40
0.8125000000000007
 40
0.8437500000000007
 40
0.8437500000000007
 40
0.8515625000000007
 40
0.8515625000000007
 40
0.8593750000000007
 40
0.8593750000000007
 40
0.8750000000000006
 40
0.8750000000000006
 40
0.9062500000000004
 40
0.9062500000000004
 40
0.9375000000000002
 40
0.9375000000000002
 40
0.9531250000000001
 40
0.9531250000000001
 40
0.9609375000000001
 40
0.9609375000000001
 40
0.9687500000000001
 40
0.9687500000000001
 40
0.984375
 40
0.984375
 40
0.9921875
 40
0.9921875
 40
1.0
 40
1.0
 40
1.0
 40
1.0
 10
141.1807140607425
 20
266.5271831985262
 30
0.0
 10
142.945322114755
 20
266.5271831985262
 30
0.0
 10
144.6614447348298
 20
266.706695528163
 30
0.0
 10
146.7543127756545
 20
267.1352014927093
 30
0.0
 10
147.1702585852685
 20
267.2312323154704
 30
0.0
 10
147.9970462723539
 20
267.443926363712
 30
0.0
 10
148.4091707703051
 20
267.561006116619
 30
0.0
 10
149.6274671422938
 20
267.9400286650817
 30
0.0
 10
150.4142983869232
 20
268.2288501037325
 30
0.0
 10
151.9437155778762
 20
268.8747343081092
 30
0.0
 10
152.6862814884945
 20
269.231820511576
 30
0.0
 10
154.1313065637813
 20
270.0135175676771
 30
0.0
 10
154.8366272864293
 20
270.4401889225786
 30
0.0
 10
156.8703864396796
 20
271.8067884160477
 30
0.0
 10
158.1184504842766
 20
272.8304670807566
 30
0.0
 10
159.8462180791992
 20
274.5425475629359
 30
0.0
 10
160.3981838555432
 20
275.1434081063035
 30
0.0
 10
161.4512406991654
 20
276.4071874173411
 30
0.0
 10
161.9450825457027
 20
277.0613450673044
 30
0.0
 10
163.3311841034273
 20
279.0919916850904
 30
0.0
 10
164.1292421571615
 20
280.5358477943454
 30
0.0
 10
164.9596647043901
 20
282.4686729192985
 30
0.0
 10
165.1172926617639
 20
282.8617027622363
 30
0.0
 10
165.4149638313524
 20
283.6613699282584
 30
0.0
 10
165.555419796599
 20
284.0694262238931
 30
0.0
 10
165.9446919819495
 20
285.3006752915749
 30
0.0
 10
166.1624623033232
 20
286.1325845563227
 30
0.0
 10
166.5144619286953
 20
287.8188845666014
 30
0.0
 10
166.6486967687411
 20
288.6732730179165
 30
0.0
 10
166.7853161168978
 20
289.972419631627
 30
0.0
 10
166.8200454356467
 20
290.4084007891757
 30
0.0
 10
166.8672520011332
 20
291.2864114719206
 30
0.0
 10
166.8795840124694
 20
291.7273823954764
 30
0.0
 10
166.8848609702273
 20
293.9166546755475
 30
0.0
 10
166.7118551987963
 20
295.6415610824629
 30
0.0
 10
166.1942720466647
 20
298.1907142767795
 30
0.0
 10
165.9770390431426
 20
299.036592367901
 30
0.0
 10
165.467809732187
 20
300.6748319669626
 30
0.0
 10
165.1750760532428
 20
301.4723522080116
 30
0.0
 10
164.5166888826481
 20
303.0269441473843
 30
0.0
 10
164.1510269201282
 20
303.7840078538556
 30
0.0
 10
163.5483222275401
 20
304.8903767980742
 30
0.0
 10
163.338140581181
 20
305.2545480817744
 30
0.0
 10
162.9039645750138
 20
305.9663306576712
 30
0.0
 10
162.6794989270386
 20
306.3148562303598
 30
0.0
 10
161.5210892127727
 20
308.0222347508582
 30
0.0
 10
160.4803923431198
 20
309.2764906361094
 30
0.0
 10
159.0347323031269
 20
310.7174694786149
 30
0.0
 10
158.737661236648
 20
310.999765222274
 30
0.0
 10
158.133347362597
 20
311.5472363586168
 30
0.0
 10
157.8257389315425
 20
311.8128308049651
 30
0.0
 10
156.886418953159
 20
312.5859310550366
 30
0.0
 10
156.238278517111
 20
313.069828609959
 30
0.0
 10
154.8958647022511
 20
313.9766833763496
 30
0.0
 10
154.2016065977049
 20
314.3996452875686
 30
0.0
 10
153.1222073408253
 20
314.9880853693326
 30
0.0
 10
152.756053043237
 20
315.1765454142325
 30
0.0
 10
152.0101959883356
 20
315.5377820721561
 30
0.0
 10
151.6295107656489
 20
315.7109686481938
 30
0.0
 10
149.70195912977
 20
316.5312340645319
 30
0.0
 10
148.0967749045363
 20
317.0386863485303
 30
0.0
 10
145.9938993861215
 20
317.476099683366
 30
0.0
 10
145.5684538900828
 20
317.5536060745156
 30
0.0
 10
144.7071685834865
 20
317.6878209557082
 30
0.0
 10
144.271957479148
 20
317.7443180801243
 30
0.0
 10
142.9714412573876
 20
317.8795341450332
 30
0.0
 10
141.2375072617943
 20
317.9708720510527
 30
0.0
 10
139.5037481104496
 20
317.8872031509717
 30
0.0
 10
138.2034944206697
 20
317.7578681267523
 30
0.0
 10
137.768841309037
 20
317.7034424621115
 30
0.0
 10
136.9053665561233
 20
317.5728350041909
 30
0.0
 10
136.4786209909554
 20
317.497043232128
 30
0.0
 10
135.2124545198096
 20
317.2394181940465
 30
0.0
 10
134.3870657254074
 20
317.0274422898003
 30
0.0
 10
133.1741851796425
 20
316.6518556108789
 30
0.0
 10
132.77410190953
 20
316.517028436466
 30
0.0
 10
131.9819879819815
 20
316.2282487597029
 30
0.0
 10
131.5889191513122
 20
316.0738424628573
 30
0.0
 10
129.6575684287438
 20
315.2601621027544
 30
0.0
 10
128.2223188340291
 20
314.4802944028393
 30
0.0
 10
126.2010788842137
 20
313.1259456321946
 30
0.0
 10
125.5496225775193
 20
312.6433830729301
 30
0.0
 10
124.2892895516215
 20
311.613570595903
 30
0.0
 10
123.6793379453091
 20
311.0647359577534
 30
0.0
 10
121.9451301559573
 20
309.3481805819757
 30
0.0
 10
120.9035036861289
 20
308.1026051958704
 30
0.0
 10
119.5100070084188
 20
306.0672166845728
 30
0.0
 10
119.0739483934498
 20
305.3607088142186
 30
0.0
 10
118.2619054392164
 20
303.8859479159609
 30
0.0
 10
117.8917035745038
 20
303.1278311534118
 30
0.0
 10
116.8943132751708
 20
300.8009383816725
 30
0.0
 10
116.3762256749242
 20
299.1755068222643
 30
0.0
 10
115.8421433587004
 20
296.6100813371112
 30
0.0
 10
115.7083306838349
 20
295.7486074453463
 30
0.0
 10
115.5288357167366
 20
294.0227001298221
 30
0.0
 10
115.4828298083066
 20
293.1567057579135
 30
0.0
 10
115.4787405653528
 20
291.418588317088
 30
0.0
 10
115.5206482283732
 20
290.5464658037449
 30
0.0
 10
115.6956210853028
 20
288.7958823495995
 30
0.0
 10
115.8274075888242
 20
287.9322147418497
 30
0.0
 10
116.1732182342288
 20
286.2386895991508
 30
0.0
 10
116.3874578325767
 20
285.4067935490025
 30
0.0
 10
116.769199957003
 20
284.180364168336
 30
0.0
 10
116.9065325995442
 20
283.7751300348995
 30
0.0
 10
117.2013508210503
 20
282.9717401021176
 30
0.0
 10
117.3593179066277
 20
282.5725196047853
 30
0.0
 10
118.1919107800382
 20
280.6121918014435
 30
0.0
 10
118.9942369044096
 20
279.1510495564589
 30
0.0
 10
120.1560783147069
 20
277.4411887536595
 30
0.0
 10
120.3964944110849
 20
277.1051113187648
 30
0.0
 10
120.8935348154952
 20
276.4445597583914
 30
0.0
 10
121.1502841419464
 20
276.1200217677269
 30
0.0
 10
121.9378647751956
 20
275.1720420460102
 30
0.0
 10
122.4881823346022
 20
274.571091485986
 30
0.0
 10
124.2146008495865
 20
272.8551861387543
 30
0.0
 10
125.4648701380878
 20
271.8261602902707
 30
0.0
 10
128.1906848233865
 20
269.9909823918001
 30
0.0
 10
129.6267125167673
 20
269.2116018831803
 30
0.0
 10
131.9049970947085
 20
268.2452825543654
 30
0.0
 10
132.6854708562866
 20
267.9572107945347
 30
0.0
 10
133.8920813288498
 20
267.5787854352247
 30
0.0
 10
134.3002855697357
 20
267.4616165914019
 30
0.0
 10
135.1296600696073
 20
267.2460236740339
 30
0.0
 10
135.5524545024626
 20
267.1472930007044
 30
0.0
 10
136.8269537164181
 20
266.8837903154717
 30
0.0
 10
137.6850918683344
 20
266.7511085573751
 30
0.0
 10
138.9856930317977
 20
266.617383880865
 30
0.0
 10
139.4214608737973
 20
266.5837153902862
 30
0.0
 10
140.2975989985991
 20
266.5386152977063
 30
0.0
 10
140.7395620472393
 20
266.5271831985262
 30
0.0
 10
141.1807140607425
 20
266.5271831985262
 30
0.0
  0
LINE
  5
BF
330
1F
100
AcDbEntity
  8
0
  6
Continuous
 62
     7
370
    25
100
AcDbLine
 10
171.1807140607
 20
328.3692639355
 30
0.0
 11
111.1807140607
 21
328.3692639355
 31
0.0
  0
LINE
  5
C0
330
1F
100
AcDbEntity
  8
0
  6
Continuous
 62
     7
370
    25
100
AcDbLine
 10
111.1807140607
 20
256.0851024615
 30
0.0
 11
171.1807140607
 21
256.0851024615
 31
0.0
  0
LINE
  5
C1
330
1F
100
AcDbEntity
  8
0
  6
Continuous
 62
     7
370
    25
100
AcDbLine
 10
201.1807140607
 20
350.8075686948
 30
0.0
 11
81.1807140607
 21
350.8075686948
 31
0.0
  0
LINE
  5
C2
330
1F
100
AcDbEntity
  8
0
  6
Continuous
 62
     7
370
    25
100
AcDbLine
 10
81.1807140607
 20
350.8075686948
 30
0.0
 11
81.1807140607
 21
335.8075686948
 31
0.0
  0
LINE
  5
C3
330
1F
100
AcDbEntity
  8
0
  6
Continuous
 62
     7
370
    25
100
AcDbLine
 10
201.1807140607
 20
350.8075686948
 30
0.0
 11
201.1807140607
 21
335.8075686948
 31
0.0
  0
INSERT
  5
CF
330
1F
100
AcDbEntity
  8
FORMAT
100
AcDbBlockReference
  2
SW_CENTERMARKSYMBOL_0
 10
141.1807140607
 20
292.2271831985
 30
0.0
  0
LINE
  5
D0
330
1F
100
AcDbEntity
  8
0
  6
Continuous
 62
     7
370
    25
100
AcDbLine
 10
-16.7354532747
 20
119.1844181495
 30
0.0
 11
-16.7354532747
 21
134.7384285714
 31
0.0
  0
LINE
  5
D1
330
1F
100
AcDbEntity
  8
0
  6
Continuous
 62
     7
370
    25
100
AcDbLine
 10
-30.7354532747
 20
134.7384285714
 30
0.0
 11
-30.7354532747
 21
119.1878533949
 31
0.0
  0
LINE
  5
D2
330
1F
100
AcDbEntity
  8
0
  6
Continuous
 62
     7
370
    25
100
AcDbLine
 10
-55.2354532747
 20
187.7384285714
 30
0.0
 11
-55.2354532747
 21
106.6708958624
 31
0.0
  0
LINE
  5
D3
330
1F
100
AcDbEntity
  8
0
  6
Continuous
 62
     7
370
    25
100
AcDbLine
 10
7.7645467253
 20
106.7043103101
 30
0.0
 11
7.7645467253
 21
187.7384285714
 31
0.0
  0
LINE
  5
D4
330
1F
100
AcDbEntity
  8
0
  6
Continuous
 62
     7
370
    25
100
AcDbLine
 10
-82.3158387709
 20
66.2384285714
 30
0.0
 11
-67.3158387709
 21
66.2384285714
 31
0.0
  0
LINE
  5
D5
330
1F
100
AcDbEntity
  8
0
  6
Continuous
 62
     7
370
    25
100
AcDbLine
 10
-82.3158387709
 20
73.2384285714
 30
0.0
 11
-82.3158387709
 21
66.2384285714
 31
0.0
  0
LINE
  5
D6
330
1F
100
AcDbEntity
  8
0
  6
Continuous
 62
     7
370
    25
100
AcDbLine
 10
-61.1820819614
 20
73.2384285714
 30
0.0
 11
-82.3158387709
 21
73.2384285714
 31
0.0
  0
ARC
  5
D7
330
1F
100
AcDbEntity
  8
0
  6
Continuous
 62
     7
370
    25
100
AcDbCircle
 10
-23.7354532747
 20
75.2384285714
 30
0.0
 40
37.5
100
AcDbArc
 50
183.0572254285
 51
176.9427745715
  0
LINE
  5
D8
330
1F
100
AcDbEntity
  8
0
  6
Continuous
 62
     7
370
    25
100
AcDbLine
 10
-82.3158387709
 20
77.2384285714
 30
0.0
 11
-61.1820819614
 21
77.2384285714
 31
0.0
  0
LINE
  5
D9
330
1F
100
AcDbEntity
  8
0
  6
Continuous
 62
     7
370
    25
100
AcDbLine
 10
-82.3158387709
 20
84.2384285714
 30
0.0
 11
-82.3158387709
 21
77.2384285714
 31
0.0
  0
LINE
  5
DA
330
1F
100
AcDbEntity
  8
0
  6
Continuous
 62
     7
370
    25
100
AcDbLine
 10
-67.3158387709
 20
84.2384285714
 30
0.0
 11
-82.3158387709
 21
84.2384285714
 31
0.0
  0
ARC
  5
DB
330
1F
100
AcDbEntity
  8
0
  6
Continuous
 62
     7
370
    25
100
AcDbCircle
 10
-23.7354532747
 20
75.2384285714
 30
0.0
 40
44.5
100
AcDbArc
 50
191.6683994965
 51
168.3316005035
  0
LINE
  5
DC
330
1F
100
AcDbEntity
  8
0
  6
Continuous
 62
     7
370
    25
100
AcDbLine
 10
-30.7354532747
 20
134.7384285714
 30
0.0
 11
-16.7354532747
 21
134.7384285714
 31
0.0
  0
LINE
  5
DD
330
1F
100
AcDbEntity
  8
0
  6
Continuous
 62
     7
370
    25
100
AcDbLine
 10
-55.2354532747
 20
187.7384285714
 30
0.0
 11
7.7645467253
 21
187.7384285714
 31
0.0
  0
LINE
  5
DE
330
1F
100
AcDbEntity
  8
0
  6
Continuous
 62
     7
370
    25
100
AcDbLine
 10
201.1807140607
 20
-28.9329384691
 30
0.0
 11
81.1807140607
 21
-28.9329384691
 31
0.0
  0
CIRCLE
  5
DF
330
1F
100
AcDbEntity
  8
0
  6
Continuous
 62
     7
370
    25
100
AcDbCircle
 10
141.1807140607
 20
-73.4329384691
 30
0.0
 40
25.7
  0
CIRCLE
  5
E0
330
1F
100
AcDbEntity
  8
0
  6
Continuous
 62
     7
370
    25
100
AcDbCircle
 10
141.1807140607
 20
-73.4329384691
 30
0.0
 40
31.5
  0
CIRCLE
  5
E1
330
1F
100
AcDbEntity
  8
0
  6
Continuous
 62
     7
370
    25
100
AcDbCircle
 10
91.1807140607
 20
-73.4329384691
 30
0.0
 40
4.600000000000009
  0
CIRCLE
  5
E2
330
1F
100
AcDbEntity
  8
0
  6
Continuous
 62
     7
370
    25
100
AcDbCircle
 10
91.1807140607
 20
-73.4329384691
 30
0.0
 40
7.0
  0
CIRCLE
  5
E3
330
1F
100
AcDbEntity
  8
0
  6
Continuous
 62
     7
370
    25
100
AcDbCircle
 10
191.1807140607
 20
-73.4329384691
 30
0.0
 40
4.600000000000009
  0
CIRCLE
  5
E4
330
1F
100
AcDbEntity
  8
0
  6
Continuous
 62
     7
370
    25
100
AcDbCircle
 10
191.1807140607
 20
-73.4329384691
 30
0.0
 40
7.0
  0
CIRCLE
  5
E5
330
1F
100
AcDbEntity
  8
0
  6
Continuous
 62
     7
370
    25
100
AcDbCircle
 10
91.1807140607
 20
-73.4329384691
 30
0.0
 40
1.500000000000014
  0
CIRCLE
  5
E6
330
1F
100
AcDbEntity
  8
0
  6
Continuous
 62
     7
370
    25
100
AcDbCircle
 10
91.1807140607
 20
-73.4329384691
 30
0.0
 40
2.000000000000014
  0
CIRCLE
  5
E7
330
1F
100
AcDbEntity
  8
0
  6
Continuous
 62
     7
370
    25
100
AcDbCircle
 10
191.1807140607
 20
-73.4329384691
 30
0.0
 40
1.500000000000014
  0
CIRCLE
  5
E8
330
1F
100
AcDbEntity
  8
0
  6
Continuous
 62
     7
370
    25
100
AcDbCircle
 10
191.1807140607
 20
-73.4329384691
 30
0.0
 40
2.000000000000014
  0
LINE
  5
E9
330
1F
100
AcDbEntity
  8
0
  6
Continuous
 62
     7
370
    25
100
AcDbLine
 10
201.1807140607
 20
-28.9329384691
 30
0.0
 11
201.1807140607
 21
-117.0133239653
 31
0.0
  0
LINE
  5
EA
330
1F
100
AcDbEntity
  8
0
  6
Continuous
 62
     7
370
    25
100
AcDbLine
 10
201.1807140607
 20
-117.0133239653
 30
0.0
 11
81.1807140607
 21
-117.0133239653
 31
0.0
  0
LINE
  5
EB
330
1F
100
AcDbEntity
  8
0
  6
Continuous
 62
     7
370
    25
100
AcDbLine
 10
81.1807140607
 20
-28.9329384691
 30
0.0
 11
81.1807140607
 21
-117.0133239653
 31
0.0
  0
LINE
  5
EC
330
1F
100
AcDbEntity
  8
0
  6
Continuous
 62
     7
370
    25
100
AcDbLine
 10
201.1807140607
 20
-132.0133239653
 30
0.0
 11
81.1807140607
 21
-132.0133239653
 31
0.0
  0
LINE
  5
ED
330
1F
100
AcDbEntity
  8
0
  6
Continuous
 62
     7
370
    25
100
AcDbLine
 10
81.1807140607
 20
-117.0133239653
 30
0.0
 11
81.1807140607
 21
-132.0133239653
 31
0.0
  0
LINE
  5
EE
330
1F
100
AcDbEntity
  8
0
  6
Continuous
 62
     7
370
    25
100
AcDbLine
 10
201.1807140607
 20
-117.0133239653
 30
0.0
 11
201.1807140607
 21
-132.0133239653
 31
0.0
  0
INSERT
  5
FA
330
1F
100
AcDbEntity
  8
FORMAT
100
AcDbBlockReference
  2
SW_CENTERMARKSYMBOL_1
 10
141.1807140607
 20
-73.4329384691
 30
0.0
  0
INSERT
  5
106
330
1F
100
AcDbEntity
  8
FORMAT
100
AcDbBlockReference
  2
SW_CENTERMARKSYMBOL_2
 10
91.1807140607
 20
-73.4329384691
 30
0.0
  0
INSERT
  5
112
330
1F
100
AcDbEntity
  8
FORMAT
100
AcDbBlockReference
  2
SW_CENTERMARKSYMBOL_3
 10
191.1807140607
 20
-73.4329384691
 30
0.0
  0
LINE
  5
113
330
1F
100
AcDbEntity
  8
0
  6
Continuous
 62
     7
370
    25
100
AcDbLine
 10
388.8921434149
 20
-112.0206614356
 30
0.0
 11
410.1053468505
 21
-99.7745397583
 31
0.0
  0
LINE
  5
114
330
1F
100
AcDbEntity
  8
0
  6
Continuous
 62
     7
370
    25
100
AcDbLine
 10
325.2525331081
 20
-148.7590264676
 30
0.0
 11
346.4657365437
 21
-136.5129047903
 31
0.0
  0
LINE
  5
115
330
1F
100
AcDbEntity
  8
0
  6
Continuous
 62
     7
370
    25
100
AcDbLine
 10
365.6089632482
 20
-22.6961910064
 30
0.0
 11
349.7185337951
 21
-31.8695406694
 31
0.0
  0
LINE
  5
116
330
1F
100
AcDbEntity
  8
0
  6
Continuous
 62
     7
370
    25
100
AcDbLine
 10
313.9307481782
 20
6.1332326001
 30
0.0
 11
313.9307481782
 21
-48.7378024479
 31
0.0
  0
LINE
  5
117
330
1F
100
AcDbEntity
  8
0
  6
Continuous
 62
     7
370
    25
100
AcDbLine
 10
376.9307481782
 20
-13.3603473791
 30
0.0
 11
376.9307481782
 21
6.1332326001
 31
0.0
  0
LINE
  5
118
330
1F
100
AcDbEntity
  8
0
  6
Continuous
 62
     7
370
    25
100
AcDbLine
 10
387.7860872375
 20
-24.8583653543
 30
0.0
 11
387.7860872375
 21
-16.7332276343
 31
0.0
  0
LINE
  5
119
330
1F
100
AcDbEntity
  8
0
  6
Continuous
 62
     7
370
    25
100
AcDbLine
 10
373.7860872375
 20
-16.7332276343
 30
0.0
 11
373.7860872375
 21
-20.6117287941
 31
0.0
  0
LINE
  5
11A
330
1F
100
AcDbEntity
  8
0
  6
Continuous
 62
     7
370
    25
100
AcDbLine
 10
346.4345672205
 20
-44.6714817329
 30
0.0
 11
357.0411689383
 21
-50.7945425716
 31
0.0
  0
LINE
  5
11B
330
1F
100
AcDbEntity
  8
0
  6
Continuous
 62
     7
370
    25
100
AcDbLine
 10
346.4345672205
 20
-38.9556960497
 30
0.0
 11
346.4345672205
 21
-44.6714817329
 31
0.0
  0
LINE
  5
11C
330
1F
100
AcDbEntity
  8
0
  6
Continuous
 62
     7
370
    25
100
AcDbLine
 10
361.3783899724
 20
-47.582581296
 30
0.0
 11
346.4345672205
 21
-38.9556960497
 31
0.0
  0
LWPOLYLINE
  5
11D
330
1F
100
AcDbEntity
  8
0
  6
Continuous
 62
     7
370
    25
100
AcDbPolyline
 90
       97
 70
   128
 43
0.0
 10
361.3783899724
 20
-44.3164180485
 10
361.524099445
 20
-42.4380199554
 10
361.7787745057
 20
-40.6374048522
 10
362.141361315
 20
-38.9220236437
 10
362.6103594967
 20
-37.2989745382
 10
363.1838283471
 20
-35.7749736764
 10
363.859394865
 20
-34.3563273393
 10
364.6342635715
 20
-33.0489058533
 10
365.5052280774
 20
-31.858119299
 10
366.4686843512
 20
-30.7888951241
 10
367.5206456328
 20
-29.8456577542
 10
368.6567589301
 20
-29.032310284
 10
369.872323032
 20
-28.3522183271
 10
371.1623079619
 20
-27.8081960885
 10
372.5213757911
 20
-27.40249472
 10
373.9439027279
 20
-27.1367930047
 10
375.4240023879
 20
-27.0121904101
 10
376.9555501522
 20
-27.0292025391
 10
378.5322085109
 20
-27.1877589959
 10
380.1474532873
 20
-27.4872036773
 10
381.7946006352
 20
-27.9262974882
 10
383.466834696
 20
-28.5032234682
 10
385.1572358031
 20
-29.2155943107
 10
386.858809115
 20
-30.0604622413
 10
388.5645135597
 20
-31.0343312155
 10
390.2672909709
 20
-32.1331713857
 10
391.9600952942
 20
-33.352435776
 10
393.6359217437
 20
-34.687079098
 10
395.2878357873
 20
-36.1315786279
 10
396.9090018422
 20
-37.6799570593
 10
398.4927115599
 20
-39.3258072372
 10
400.0324115854
 20
-41.0623186709
 10
401.521730675
 20
-42.8823057154
 10
402.9545060598
 20
-44.7782373054
 10
404.3248089479
 20
-46.742268119
 10
405.6269690567
 20
-48.7662710411
 10
406.8555980774
 20
-50.8418707933
 10
408.0056119707
 20
-52.960478591
 10
409.0722520053
 20
-55.1133276829
 10
410.0511044488
 20
-57.2915096283
 10
410.9381188319
 20
-59.4860111596
 10
411.7296247092
 20
-61.687751479
 10
412.4223468473
 20
-63.8876198351
 10
413.0134187777
 20
-66.0765132222
 10
413.5003946581
 20
-68.2453740491
 10
413.8812593933
 20
-70.3852276188
 10
414.1544369736
 20
-72.4872192656
 10
414.3187969965
 20
-74.5426509957
 10
414.3736593439
 20
-76.543017479
 10
414.3187969965
 20
-78.4800412444
 10
414.1544369736
 20
-80.3457069314
 10
413.8812593933
 20
-82.1322944575
 10
413.5003946581
 20
-83.832410964
 10
413.0134187777
 20
-85.4390214072
 10
412.4223468473
 20
-86.9454776696
 10
411.7296247092
 20
-88.3455460692
 10
410.9381188319
 20
-89.6334331546
 10
410.0511044488
 20
-90.8038096782
 10
409.0722520053
 20
-91.8518326485
 10
408.0056119707
 20
-92.7731653701
 10
406.8555980774
 20
-93.563995389
 10
405.6269690567
 20
-94.2210502686
 10
404.3248089479
 20
-94.7416111307
 10
402.9545060598
 20
-95.1235239061
 10
401.521730675
 20
-95.3652082484
 10
400.0324115854
 20
-95.4656640733
 10
398.4927115599
 20
-95.4244756969
 10
396.9090018422
 20
-95.2418135557
 10
395.2878357873
 20
-94.9184335016
 10
393.6359217436
 20
-94.4556736739
 10
391.9600952942
 20
-93.8554489622
 10
390.2672909709
 20
-93.1202430829
 10
388.5645135597
 20
-92.2530983013
 10
386.858809115
 20
-91.2576028428
 10
385.1572358031
 20
-90.1378760451
 10
383.466834696
 20
-88.8985513123
 10
381.7946006352
 20
-87.5447569422
 10
380.1474532873
 20
-86.0820949052
 10
378.5322085109
 20
-84.5166176638
 10
376.9555501522
 20
-82.8548031273
 10
375.4240023879
 20
-81.1035278466
 10
373.9439027279
 20
-79.2700385593
 10
372.5213757911
 20
-77.3619222025
 10
371.1623079619
 20
-75.3870745186
 10
369.872323032
 20
-73.3536673825
 10
368.6567589301
 20
-71.270114987
 10
367.5206456328
 20
-69.1450390247
 10
366.4686843512
 20
-66.9872330119
 10
365.5052280774
 20
-64.805625901
 10
364.6342635715
 20
-62.6092451329
 10
363.859394865
 20
-60.4071792814
 10
363.1838283471
 20
-58.2085404453
 10
362.6103594967
 20
-56.0224265423
 10
362.141361315
 20
-53.8578836622
 10
361.7787745057
 20
-51.7238686346
 10
361.524099445
 20
-49.6292119652
 10
361.3783899724
 20
-47.582581296
  0
LINE
  5
11E
330
1F
100
AcDbEntity
  8
0
  6
Continuous
 62
     7
370
    25
100
AcDbLine
 10
346.4345672205
 20
-35.6895328022
 30
0.0
 11
361.3783899724
 21
-44.3164180485
 31
0.0
  0
LINE
  5
11F
330
1F
100
AcDbEntity
  8
0
  6
Continuous
 62
     7
370
    25
100
AcDbLine
 10
346.4345672205
 20
-29.973747119
 30
0.0
 11
346.4345672205
 21
-35.6895328022
 31
0.0
  0
LINE
  5
120
330
1F
100
AcDbEntity
  8
0
  6
Continuous
 62
     7
370
    25
100
AcDbLine
 10
357.0411689383
 20
-36.0968079576
 30
0.0
 11
346.4345672205
 21
-29.973747119
 31
0.0
  0
LWPOLYLINE
  5
121
330
1F
100
AcDbEntity
  8
0
  6
Continuous
 62
     7
370
    25
100
AcDbPolyline
 90
      101
 70
   128
 43
0.0
 10
357.0411689383
 20
-50.7945425716
 10
357.4680749006
 20
-53.1180464245
 10
357.9998719605
 20
-55.4695680551
 10
358.6347245644
 20
-57.84099094
 10
359.370441452
 20
-60.2241298642
 10
360.2044832194
 20
-62.6107591739
 10
361.1339710839
 20
-64.9926411677
 10
362.1556968207
 20
-67.36155453
 10
363.2661338362
 20
-69.7093227079
 10
364.4614493406
 20
-72.0278421334
 10
365.737517577
 20
-74.3091101934
 10
367.0899340621
 20
-76.545252852
 10
368.5140307886
 20
-78.7285518283
 10
370.0048923373
 20
-80.8514712368
 10
371.5573728431
 20
-82.9066835985
 10
373.1661137567
 20
-84.8870951325
 10
374.8255623402
 20
-86.7858702406
 10
376.5299908328
 20
-88.5964551013
 10
378.2735162206
 20
-90.3126002912
 10
380.050120543
 20
-91.9283823551
 10
381.8536716639
 20
-93.4382242518
 10
383.6779444373
 20
-94.8369146035
 10
385.5166421944
 20
-96.1196256839
 10
387.3634184772
 20
-97.2819300811
 10
389.2118989435
 20
-98.3198159796
 10
391.0557033692
 20
-99.2297010073
 10
392.8884676699
 20
-100.0084446006
 10
394.7038658674
 20
-100.6533588444
 10
396.4956319244
 20
-101.1622177495
 10
398.2575813724
 20
-101.5332649361
 10
399.9836326582
 20
-101.7652196957
 10
401.6678281346
 20
-101.8572814123
 10
403.3043546243
 20
-101.8091323252
 10
404.8875634846
 20
-101.620938626
 10
406.411990104
 20
-101.293349885
 10
407.8723727641
 20
-100.8274968091
 10
409.263670801
 20
-100.2249873391
 10
410.5810820037
 20
-99.4879010995
 10
411.820059189
 20
-98.6187822209
 10
412.9763258975
 20
-97.6206305581
 10
414.0458911532
 20
-96.4968913365
 10
415.0250632395
 20
-95.2514432596
 10
415.9104624412
 20
-93.8885851223
 10
416.6990327102
 20
-92.4130209723
 10
417.3880522134
 20
-90.829843874
 10
417.9751427278
 20
-89.1445183293
 10
418.4582778488
 20
-87.362861416
 10
418.835789985
 20
-85.4910227097
 10
419.1063761135
 20
-83.5354630583
 10
419.2691022781
 20
-81.5029322808
 10
419.3234068122
 20
-79.4004458704
 10
419.2691022781
 20
-77.2352607795
 10
419.1063761135
 20
-75.0148503716
 10
418.835789985
 20
-72.7468786259
 10
418.4582778488
 20
-70.439173685
 10
417.9751427278
 20
-68.0997008344
 10
417.3880522134
 20
-65.73653501
 10
416.6990327102
 20
-63.3578329265
 10
415.9104624412
 20
-60.9718049238
 10
415.0250632395
 20
-58.5866866275
 10
414.0458911532
 20
-56.2107105238
 10
412.9763258975
 20
-53.8520775434
 10
411.820059189
 20
-51.5189287553
 10
410.5810820037
 20
-49.2193172673
 10
409.263670801
 20
-46.9611804296
 10
407.8723727641
 20
-44.7523124385
 10
406.411990104
 20
-42.6003374333
 10
404.8875634846
 20
-40.5126831816
 10
403.3043546243
 20
-38.496555441
 10
401.6678281346
 20
-36.5589130878
 10
399.9836326582
 20
-34.7064440978
 10
398.2575813724
 20
-32.9455424621
 10
396.4956319244
 20
-31.2822861173
 10
394.7038658674
 20
-29.7224159671
 10
392.8884676699
 20
-28.2713160671
 10
391.0557033692
 20
-26.9339950405
 10
389.2118989435
 20
-25.7150687914
 10
387.3634184772
 20
-24.6187445714
 10
385.5166421944
 20
-23.6488064585
 10
383.6779444373
 20
-22.808602296
 10
381.8536716639
 20
-22.1010321366
 10
380.050120543
 20
-21.5285382329
 10
378.2735162206
 20
-21.0930966076
 10
376.5299908328
 20
-20.7962102333
 10
374.8255623402
 20
-20.6389038443
 10
373.1661137567
 20
-20.6217204002
 10
371.5573728431
 20
-20.7447192115
 10
370.0048923373
 20
-21.0074757347
 10
368.5140307886
 20
-21.4090830383
 10
367.0899340621
 20
-21.9481549325
 10
365.737517577
 20
-22.6228307541
 10
364.4614493406
 20
-23.4307817888
 10
363.2661338362
 20
-24.3692193087
 10
362.1556968207
 20
-25.4349041985
 10
361.1339710839
 20
-26.6241581349
 10
360.2044832194
 20
-27.9328762833
 10
359.370441452
 20
-29.3565414656
 10
358.6347245644
 20
-30.8902397522
 10
357.9998719605
 20
-32.5286774226
 10
357.4680749006
 20
-34.2661992374
 10
357.0411689383
 20
-36.0968079576
  0
LINE
  5
122
330
1F
100
AcDbEntity
  8
0
  6
Continuous
 62
     7
370
    25
100
AcDbLine
 10
357.0411689383
 20
-50.7945425716
 30
0.0
 11
272.1883551959
 21
-99.7790292809
 31
0.0
  0
LWPOLYLINE
  5
123
330
1F
100
AcDbEntity
  8
0
  6
Continuous
 62
     7
370
    25
100
AcDbPolyline
 90
       38
 70
   128
 43
0.0
 10
272.1883551959
 20
-99.7790292809
 10
272.6152611583
 20
-102.1025331338
 10
273.1470582181
 20
-104.4540547645
 10
273.781910822
 20
-106.8254776493
 10
274.5176277096
 20
-109.2086165736
 10
275.351669477
 20
-111.5952458833
 10
276.2811573416
 20
-113.977127877
 10
277.3028830783
 20
-116.3460412394
 10
278.4133200938
 20
-118.6938094173
 10
279.6086355982
 20
-121.0123288428
 10
280.8847038346
 20
-123.2935969028
 10
282.2371203198
 20
-125.5297395614
 10
283.6612170463
 20
-127.7130385376
 10
285.1520785949
 20
-129.8359579461
 10
286.7045591007
 20
-131.8911703079
 10
288.3133000143
 20
-133.8715818419
 10
289.9727485978
 20
-135.7703569499
 10
291.6771770904
 20
-137.5809418107
 10
293.4207024782
 20
-139.2970870006
 10
295.1973068006
 20
-140.9128690645
 10
297.0008579215
 20
-142.4227109611
 10
298.8251306949
 20
-143.8214013129
 10
300.6638284521
 20
-145.1041123933
 10
302.5106047348
 20
-146.2664167905
 10
304.3590852011
 20
-147.3043026889
 10
306.2028896268
 20
-148.2141877166
 10
308.0356539275
 20
-148.99293131
 10
309.851052125
 20
-149.6378455538
 10
311.642818182
 20
-150.1467044589
 10
313.40476763
 20
-150.5177516454
 10
315.1308189158
 20
-150.7497064051
 10
316.8150143922
 20
-150.8417681217
 10
318.451540882
 20
-150.7936190346
 10
320.0347497422
 20
-150.6054253354
 10
321.5591763616
 20
-150.2778365944
 10
323.0195590217
 20
-149.8119835185
 10
324.4108570586
 20
-149.2094740484
 10
325.2525331081
 20
-148.7590264676
  0
LINE
  5
124
330
1F
100
AcDbEntity
  8
0
  6
Continuous
 62
     7
370
    25
100
AcDbLine
 10
293.5560868516
 20
-88.4386556581
 30
0.0
 11
335.9824937228
 21
-63.9464123035
 31
0.0
  0
LWPOLYLINE
  5
125
330
1F
100
AcDbEntity
  8
0
  6
Continuous
 62
     7
370
    25
100
AcDbPolyline
 90
       46
 70
   128
 43
0.0
 10
354.8790026336
 20
-123.8396214083
 10
354.4021345191
 20
-125.6636914782
 10
353.8175749844
 20
-127.3889703684
 10
353.1274095985
 20
-129.0093026951
 10
352.334100707
 20
-130.5189074988
 10
351.4404786468
 20
-131.9123988696
 10
350.4497316486
 20
-133.1848051624
 10
349.3653944612
 20
-134.3315867349
 10
348.1913357414
 20
-135.3486521439
 10
346.9317442507
 20
-136.2323727424
 10
345.5911139113
 20
-136.9795956261
 10
344.1742277726
 20
-137.5876548817
 10
342.6861409466
 20
-138.054381099
 10
341.1321625723
 20
-138.3781091099
 10
339.5178368741
 20
-138.5576839302
 10
337.8489233812
 20
-138.5924648796
 10
336.131376379
 20
-138.4823278681
 10
334.3713236659
 20
-138.2276658382
 10
332.5750446903
 20
-137.8293873634
 10
330.7489481472
 20
-137.2889134063
 10
328.899549114
 20
-136.6081722491
 10
327.0334458053
 20
-135.789592614
 10
325.157296033
 20
-134.836094998
 10
323.2777934521
 20
-133.7510812532
 10
321.4016436798
 20
-132.53842245
 10
319.5355403712
 20
-131.202445066
 10
317.6861413379
 20
-129.7479155499
 10
315.8600447949
 20
-128.1800233163
 10
314.0637658192
 20
-126.5043622309
 10
312.3037131061
 20
-124.7269106529
 10
310.586166104
 20
-122.8540101059
 10
308.917252611
 20
-120.8923426525
 10
307.3029269128
 20
-118.8489070544
 10
305.7489485385
 20
-116.7309938028
 10
304.2608617125
 20
-114.5461591072
 10
302.8439755738
 20
-112.302197937
 10
301.5033452344
 20
-110.0071162106
 10
300.2437537437
 20
-107.6691022324
 10
299.0696950239
 20
-105.296497479
 10
297.9853578366
 20
-102.8977668385
 10
296.9946108383
 20
-100.4814684099
 10
296.1009887782
 20
-98.05622297
 10
295.3076798867
 20
-95.6306832163
 10
294.6175145008
 20
-93.2135028965
 10
294.0329549661
 20
-90.8133059336
 10
293.5560868516
 20
-88.4386556581
  0
LINE
  5
126
330
1F
100
AcDbEntity
  8
0
  6
Continuous
 62
     7
370
    25
100
AcDbLine
 10
373.710035983
 20
-112.9686972498
 30
0.0
 11
354.8790026336
 21
-123.8396214083
 31
0.0
  0
LWPOLYLINE
  5
127
330
1F
100
AcDbEntity
  8
0
  6
Continuous
 62
     7
370
    25
100
AcDbPolyline
 90
       37
 70
   128
 43
0.0
 10
335.9824937228
 20
-63.9464123035
 10
336.4593618373
 20
-66.3210625789
 10
337.043921372
 20
-68.7212595418
 10
337.7340867579
 20
-71.1384398617
 10
338.5273956494
 20
-73.5639796153
 10
339.4210177095
 20
-75.9892250552
 10
340.4117647078
 20
-78.4055234838
 10
341.4961018951
 20
-80.8042541243
 10
342.6701606149
 20
-83.1768588777
 10
343.9297521056
 20
-85.5148728559
 10
345.270382445
 20
-87.8099545823
 10
346.6872685837
 20
-90.0539157526
 10
348.1753554097
 20
-92.2387504482
 10
349.729333784
 20
-94.3566636998
 10
351.3436594822
 20
-96.4000992978
 10
353.0125729752
 20
-98.3617667512
 10
354.7301199773
 20
-100.2346672983
 10
356.4901726904
 20
-102.0121188762
 10
358.2864516661
 20
-103.6877799616
 10
360.1125482091
 20
-105.2556721952
 10
361.9619472423
 20
-106.7102017113
 10
363.828050551
 20
-108.0461790953
 10
365.7042003233
 20
-109.2588378985
 10
367.5837029042
 20
-110.3438516433
 10
369.4598526765
 20
-111.2973492593
 10
371.3259559852
 20
-112.1159288944
 10
373.1753550184
 20
-112.7966700516
 10
375.0014515615
 20
-113.3371440087
 10
376.7977305371
 20
-113.7354224836
 10
378.5577832502
 20
-113.9900845134
 10
380.2753302524
 20
-114.100221525
 10
381.9442437453
 20
-114.0654405755
 10
383.5585694435
 20
-113.8858657552
 10
385.1125478178
 20
-113.5621377443
 10
386.6006346438
 20
-113.0954115271
 10
388.0175207825
 20
-112.4873522714
 10
388.8921434149
 20
-112.0206614356
  0
SPLINE
  5
128
330
1F
100
AcDbEntity
  8
0
  6
Continuous
 62
     7
370
    25
100
AcDbSpline
210
0.0
220
0.0
230
1.0
 70
     8
 71
     3
 72
    22
 73
    18
 74
     0
 42
0.00000001
 43
0.00000001
 40
0.0
 40
0.0
 40
0.0
 40
0.0
 40
0.0045292766406544
 40
0.0702016958255423
 40
0.1360570292912005
 40
0.2017878887461259
 40
0.2784632223371159
 40
0.3553231154026771
 40
0.4319965125917078
 40
0.5206822398632471
 40
0.6096810318671964
 40
0.6982460787282833
 40
0.7637743073059775
 40
0.8294945223239255
 40
0.8949935257451839
 40
0.9605959749922522
 40
1.0
 40
1.0
 40
1.0
 40
1.0
 10
367.9229046156138
 20
-69.84658121021425
 30
0.0
 10
367.9518050292637
 20
-69.80989506625974
 30
0.0
 10
368.3997480915331
 20
-69.24127678055167
 30
0.0
 10
369.0648380000013
 20
-67.97285085822075
 30
0.0
 10
369.9077050313792
 20
-66.0901522595221
 30
0.0
 10
370.5530206395321
 20
-63.99161811885007
 30
0.0
 10
370.9914437215186
 20
-61.72495198277419
 30
0.0
 10
371.1730964577127
 20
-59.31464050455424
 30
0.0
 10
371.0737582111077
 20
-56.78969737998256
 30
0.0
 10
370.6266793441292
 20
-54.20012811640265
 30
0.0
 10
369.7747475992647
 20
-51.61810088156439
 30
0.0
 10
368.6409350752354
 20
-49.43602651166655
 30
0.0
 10
367.3267120229607
 20
-47.6650531170019
 30
0.0
 10
365.9475985897008
 20
-46.25008385744538
 30
0.0
 10
364.3695167181874
 20
-45.04210010740086
 30
0.0
 10
362.8641126523094
 20
-44.16132238451664
 30
0.0
 10
361.8373894288459
 20
-43.77867493921494
 30
0.0
 10
361.4521081606146
 20
-43.63508522619181
 30
0.0
  0
LINE
  5
129
330
1F
100
AcDbEntity
  8
0
  6
Continuous
 62
     7
370
    25
100
AcDbLine
 10
335.7747059712
 20
-69.9606434775
 30
0.0
 11
337.6809214529
 21
-70.8053469449
 31
0.0
  0
LINE
  5
12A
330
1F
100
AcDbEntity
  8
0
  6
Continuous
 62
     7
370
    25
100
AcDbLine
 10
361.3783899724
 20
-44.3164180485
 30
0.0
 11
358.5495031114
 21
-45.9494996722
 31
0.0
  0
LWPOLYLINE
  5
12B
330
1F
100
AcDbEntity
  8
0
  6
Continuous
 62
     7
370
    25
100
AcDbPolyline
 90
       25
 70
   128
 43
0.0
 10
310.0795626446
 20
-84.7941339802
 10
310.4350220449
 20
-85.1160653373
 10
312.0561880998
 20
-86.6644437686
 10
313.6398978175
 20
-88.3102939466
 10
315.1795978431
 20
-90.0468053803
 10
316.6689169326
 20
-91.8667924247
 10
318.1016923175
 20
-93.7627240148
 10
319.4719952055
 20
-95.7267548283
 10
320.7741553143
 20
-97.7507577504
 10
322.002784335
 20
-99.8263575027
 10
323.1527982283
 20
-101.9449653004
 10
324.2194382629
 20
-104.0978143923
 10
325.1982907064
 20
-106.2759963377
 10
326.0853050895
 20
-108.470497869
 10
326.8768109668
 20
-110.6722381884
 10
327.5695331049
 20
-112.8721065444
 10
328.1606050353
 20
-115.0609999315
 10
328.6475809157
 20
-117.2298607584
 10
329.0284456509
 20
-119.3697143281
 10
329.3016232313
 20
-121.4717059749
 10
329.4659832541
 20
-123.527137705
 10
329.5208456015
 20
-125.5275041884
 10
329.4659832541
 20
-127.4645279538
 10
329.3016232313
 20
-129.3301936407
 10
329.0719237211
 20
-130.8788972509
  0
LINE
  5
12C
330
1F
100
AcDbEntity
  8
0
  6
Continuous
 62
     7
370
    25
100
AcDbLine
 10
337.1616794446
 20
-69.1599607343
 30
0.0
 11
298.6612343672
 21
-91.3857945873
 31
0.0
  0
LINE
  5
12D
330
1F
100
AcDbEntity
  8
0
  6
Continuous
 62
     7
370
    25
100
AcDbLine
 10
349.7738551179
 20
-120.8924824791
 30
0.0
 11
367.823222114
 21
-110.4728047014
 31
0.0
  0
LWPOLYLINE
  5
12E
330
1F
100
AcDbEntity
  8
0
  6
Continuous
 62
     7
370
    25
100
AcDbPolyline
 90
       41
 70
   128
 43
0.0
 10
298.6612343672
 20
-91.3857945873
 10
299.1748752505
 20
-93.583214386
 10
299.7944246762
 20
-95.7992022193
 10
300.5172624933
 20
-98.0243864009
 10
301.3403317315
 20
-100.2493563521
 10
302.2601515292
 20
-102.4647024002
 10
303.272831855
 20
-104.661055573
 10
304.3740899586
 20
-106.8291272217
 10
305.5592684834
 20
-108.9597483035
 10
306.8233551632
 20
-111.0439081587
 10
308.1610040192
 20
-113.0727926178
 10
309.5665579692
 20
-115.0378212778
 10
311.0340727519
 20
-116.9306837899
 10
312.5573420661
 20
-118.7433750047
 10
314.1299238176
 20
-120.468228827
 10
315.745167364
 20
-122.0979506372
 10
317.3962416408
 20
-123.6256481402
 10
319.0761640509
 20
-125.0448605147
 10
320.7778299951
 20
-126.3495857363
 10
322.4940429178
 20
-127.5343059608
 10
324.2175447426
 20
-128.5940108601
 10
325.9410465674
 20
-129.5242188112
 10
327.6572594901
 20
-130.3209958499
 10
329.3589254342
 20
-130.9809723076
 10
331.0388478444
 20
-131.5013570624
 10
332.6899221212
 20
-131.8799493428
 10
334.3051656676
 20
-132.1151480354
 10
335.8777474191
 20
-132.2059584558
 10
337.4010167332
 20
-132.1519965556
 10
338.8685315159
 20
-131.9534905462
 10
340.2740854659
 20
-131.6112799341
 10
341.6117343219
 20
-131.1268119703
 10
342.8758210017
 20
-130.5021355297
 10
344.0609995266
 20
-129.7398924459
 10
345.1622576302
 20
-128.8433063393
 10
346.1749379559
 20
-127.8161689832
 10
347.0947577536
 20
-126.6628242683
 10
347.9178269918
 20
-125.3881498318
 10
348.640664809
 20
-123.9975364296
 10
349.2602142347
 20
-122.4968651372
 10
349.7738551179
 20
-120.8924824791
  0
LINE
  5
12F
330
1F
100
AcDbEntity
  8
0
  6
Continuous
 62
     7
370
    25
100
AcDbLine
 10
346.4345672205
 20
-38.9556960497
 30
0.0
 11
261.5817534781
 21
-87.9401827591
 31
0.0
  0
LINE
  5
130
330
1F
100
AcDbEntity
  8
0
  6
Continuous
 62
     7
370
    25
100
AcDbLine
 10
346.4345672205
 20
-44.6714817329
 30
0.0
 11
261.5817534781
 21
-93.6559684423
 31
0.0
  0
LINE
  5
131
330
1F
100
AcDbEntity
  8
0
  6
Continuous
 62
     7
370
    25
100
AcDbLine
 10
261.5817534781
 20
-87.9401827591
 30
0.0
 11
261.5817534781
 21
-93.6559684423
 31
0.0
  0
LINE
  5
132
330
1F
100
AcDbEntity
  8
0
  6
Continuous
 62
     7
370
    25
100
AcDbLine
 10
261.5817534781
 20
-93.6559684423
 30
0.0
 11
272.1883551959
 21
-99.7790292809
 31
0.0
  0
LINE
  5
133
330
1F
100
AcDbEntity
  8
0
  6
Continuous
 62
     7
370
    25
100
AcDbLine
 10
346.4345672205
 20
-29.973747119
 30
0.0
 11
261.5817534781
 21
-78.9582338283
 31
0.0
  0
LINE
  5
134
330
1F
100
AcDbEntity
  8
0
  6
Continuous
 62
     7
370
    25
100
AcDbLine
 10
346.4345672205
 20
-35.6895328022
 30
0.0
 11
261.5817534781
 21
-84.6740195115
 31
0.0
  0
LINE
  5
135
330
1F
100
AcDbEntity
  8
0
  6
Continuous
 62
     7
370
    25
100
AcDbLine
 10
261.5817534781
 20
-78.9582338283
 30
0.0
 11
261.5817534781
 21
-84.6740195115
 31
0.0
  0
LINE
  5
136
330
1F
100
AcDbEntity
  8
0
  6
Continuous
 62
     7
370
    25
100
AcDbLine
 10
261.5817534781
 20
-84.6740195115
 30
0.0
 11
264.4106403391
 21
-86.3071011353
 31
0.0
  0
LINE
  5
137
330
1F
100
AcDbEntity
  8
0
  6
Continuous
 62
     7
370
    25
100
AcDbLine
 10
298.6612343672
 20
-91.3857945873
 30
0.0
 11
293.5560868516
 21
-88.4386556581
 31
0.0
  0
LINE
  5
138
330
1F
100
AcDbEntity
  8
0
  6
Continuous
 62
     7
370
    25
100
AcDbLine
 10
354.8790026336
 20
-123.8396214083
 30
0.0
 11
349.7738551179
 21
-120.8924824791
 31
0.0
  0
LWPOLYLINE
  5
139
330
1F
100
AcDbEntity
  8
0
  6
Continuous
 62
     7
370
    25
100
AcDbPolyline
 90
       35
 70
   128
 43
0.0
 10
323.1568845708
 20
18.9916603613
 10
324.764888765
 20
19.8572964561
 10
326.4735749489
 20
20.6560702913
 10
328.2746185752
 20
21.384090321
 10
330.1592451404
 20
22.037809705
 10
332.1182729333
 20
22.6140435881
 10
334.1421577675
 20
23.1099846166
 10
336.2210394794
 20
23.5232166159
 10
338.3447899663
 20
23.851726361
 10
340.5030625294
 20
24.0939133856
 10
342.6853422816
 20
24.2485977788
 10
344.8809973754
 20
24.3150259338
 10
347.0793307998
 20
24.2928742193
 10
349.2696324954
 20
24.1822505563
 10
351.4412315325
 20
23.983693892
 10
353.5835480989
 20
23.6981715747
 10
355.6861450436
 20
23.3270746402
 10
357.7387787256
 20
22.8722110357
 10
359.73144892
 20
22.3357968109
 10
361.6544475378
 20
21.7204453219
 10
363.4984059232
 20
21.0291544993
 10
365.2543404962
 20
20.2652922426
 10
366.9136965201
 20
19.4325800118
 10
368.4683897792
 20
18.5350746973
 10
369.9108459641
 20
17.5771488547
 10
371.2340375733
 20
16.5634694025
 10
372.4315181503
 20
15.498974885
 10
373.4974536901
 20
14.3888514126
 10
374.4266510619
 20
13.2385073951
 10
375.2145833096
 20
12.0535471931
 10
375.8574117063
 20
10.8397438134
 10
376.3520044568
 20
9.6030107843
 10
376.6959519549
 20
8.3493733446
 10
376.8875785229
 20
7.08493909
 10
376.9307481782
 20
6.1332326001
  0
LWPOLYLINE
  5
13A
330
1F
100
AcDbEntity
  8
0
  6
Continuous
 62
     7
370
    25
100
AcDbPolyline
 90
       13
 70
   128
 43
0.0
 10
313.9307481782
 20
6.1332326001
 10
313.9355457807
 20
6.4505969833
 10
314.0506151883
 20
7.7181216889
 10
314.3185654494
 20
8.9779249742
 10
314.7380911374
 20
10.2238692042
 10
315.3071483653
 20
11.4498842638
 10
316.0229647435
 20
12.649997131
 10
316.8820528865
 20
13.8183609764
 10
317.8802274033
 20
14.9492836489
 10
319.0126252879
 20
16.0372554069
 10
320.2737296117
 20
17.0769757613
 10
321.6573964012
 20
18.063379299
 10
323.1568845708
 20
18.9916603613
  0
LWPOLYLINE
  5
13B
330
1F
100
AcDbEntity
  8
0
  6
Continuous
 62
     7
370
    25
100
AcDbPolyline
 90
       23
 70
   128
 43
0.0
 10
373.7860872375
 20
-16.7332276343
 10
373.790982304
 20
-16.5821292953
 10
373.9081219249
 20
-15.9819562298
 10
374.1789039253
 20
-15.3985653261
 10
374.597279483
 20
-14.8449885728
 10
375.1539027791
 20
-14.33359196
 10
375.8363397692
 20
-13.8757992429
 10
376.6293459385
 20
-13.4818367542
 10
377.5152068396
 20
-13.1605049651
 10
378.4741338038
 20
-12.9189818967
 10
379.4847059874
 20
-12.7626627751
 10
380.5243488776
 20
-12.6950395114
 10
381.5698385702
 20
-12.7176226974
 10
382.5978205532
 20
-12.8299078621
 10
383.5853314077
 20
-13.0293867405
 10
384.5103117731
 20
-13.3116033041
 10
385.3520991164
 20
-13.6702533011
 10
386.0918892995
 20
-14.0973250833
 10
386.7131566321
 20
-14.5832785728
 10
387.2020230286
 20
-15.1172583717
 10
387.5475680215
 20
-15.6873362535
 10
387.7420727068
 20
-16.2807776205
 10
387.7860872375
 20
-16.7332276343
  0
ENDSEC
  0
SECTION
  2
OBJECTS
  0
DICTIONARY
  5
C
330
0
100
AcDbDictionary
281
     1
  3
ACAD_GROUP
350
D
  3
ACAD_LAYOUT
350
1A
  3
ACAD_MLINESTYLE
350
17
  3
ACAD_PLOTSETTINGS
350
19
  3
ACAD_PLOTSTYLENAME
350
E
  3
ACAD_SCALELIST
350
47
  3
DWGPROPS
350
13C
  0
DICTIONARY
  5
D
102
{ACAD_REACTORS
330
C
102
}
330
C
100
AcDbDictionary
281
     1
  0
DICTIONARY
  5
1A
102
{ACAD_REACTORS
330
C
102
}
330
C
100
AcDbDictionary
281
     1
  3
Layout1
350
1E
  3
Layout2
350
26
  3
Model
350
22
  0
DICTIONARY
  5
17
102
{ACAD_REACTORS
330
C
102
}
330
C
100
AcDbDictionary
281
     1
  3
Standard
350
18
  0
DICTIONARY
  5
19
102
{ACAD_REACTORS
330
C
102
}
330
C
100
AcDbDictionary
281
     1
  0
ACDBDICTIONARYWDFLT
  5
E
102
{ACAD_REACTORS
330
C
102
}
330
C
100
AcDbDictionary
281
     1
  3
Normal
350
F
100
AcDbDictionaryWithDefault
340
F
  0
DICTIONARY
  5
47
102
{ACAD_REACTORS
330
C
102
}
330
C
100
AcDbDictionary
281
     1
  3
A0
350
48
  3
A1
350
49
  3
A2
350
4A
  3
A3
350
4B
  3
A4
350
4C
  3
A5
350
4D
  3
A6
350
4E
  3
A7
350
4F
  3
A8
350
50
  3
A9
350
51
  3
B0
350
52
  3
B1
350
53
  3
B2
350
54
  3
B3
350
55
  3
B4
350
56
  3
B5
350
57
  3
B6
350
58
  3
B7
350
59
  3
B8
350
5A
  3
B9
350
5B
  3
C0
350
5C
  3
C1
350
5D
  3
C2
350
5E
  3
C3
350
5F
  3
C4
350
60
  3
C5
350
61
  3
C6
350
62
  3
C7
350
63
  3
C8
350
64
  3
C9
350
65
  3
D0
350
66
  3
D1
350
67
  3
D2
350
68
  0
XRECORD
  5
13C
102
{ACAD_REACTORS
330
C
102
}
330
C
100
AcDbXrecord
280
     1
  1
DWGPROPS COOKIE
  2

  3

  4

  6

  7

  8
b.kav
  9

300
=
301
=
302
=
303
=
304
=
305
=
306
=
307
=
308
=
309
=
 40
0.0
 41
2459741.48941625
 42
2459741.489416424
  1

 90
        0
  0
LAYOUT
  5
1E
102
{ACAD_REACTORS
330
1A
102
}
330
1A
100
AcDbPlotSettings
  1

  2
none_device
  4

  6

 40
0.0
 41
0.0
 42
0.0
 43
0.0
 44
0.0
 45
0.0
 46
0.0
 47
0.0
 48
0.0
 49
0.0
140
0.0
141
0.0
142
1.0
143
1.0
 70
   688
 72
     1
 73
     0
 74
     5
  7

 75
    16
147
1.0
148
0.0
149
0.0
100
AcDbLayout
  1
Layout1
 70
     1
 71
     1
 10
0.0
 20
0.0
 11
420.0
 21
297.0
 12
0.0
 22
0.0
 32
0.0
 14
1.0000000000E+20
 24
1.0000000000E+20
 34
1.0000000000E+20
 15
-1.0000000000E+20
 25
-1.0000000000E+20
 35
-1.0000000000E+20
146
0.0
 13
0.0
 23
0.0
 33
0.0
 16
1.0
 26
0.0
 36
0.0
 17
0.0
 27
1.0
 37
0.0
 76
     0
330
1B
  0
LAYOUT
  5
26
102
{ACAD_REACTORS
330
1A
102
}
330
1A
100
AcDbPlotSettings
  1

  2
none_device
  4

  6

 40
0.0
 41
0.0
 42
0.0
 43
0.0
 44
0.0
 45
0.0
 46
0.0
 47
0.0
 48
0.0
 49
0.0
140
0.0
141
0.0
142
1.0
143
1.0
 70
   688
 72
     1
 73
     0
 74
     5
  7

 75
    16
147
1.0
148
0.0
149
0.0
100
AcDbLayout
  1
Layout2
 70
     1
 71
     2
 10
0.0
 20
0.0
 11
0.0
 21
0.0
 12
0.0
 22
0.0
 32
0.0
 14
0.0
 24
0.0
 34
0.0
 15
0.0
 25
0.0
 35
0.0
146
0.0
 13
0.0
 23
0.0
 33
0.0
 16
1.0
 26
0.0
 36
0.0
 17
0.0
 27
1.0
 37
0.0
 76
     0
330
23
  0
LAYOUT
  5
22
102
{ACAD_REACTORS
330
1A
102
}
330
1A
100
AcDbPlotSettings
  1

  2
none_device
  4
Letter_(8.50_x_11.00_Inches)
  6

 40
6.35
 41
6.35
 42
6.35000508
 43
6.35000508
 44
215.9
 45
279.4
 46
0.0
 47
0.0
 48
0.0
 49
0.0
140
0.0
141
0.0
142
1.0
143
1.0
 70
  1712
 72
     1
 73
     0
 74
     0
  7

 75
     0
147
1.0
148
0.0
149
0.0
100
AcDbLayout
  1
Model
 70
     1
 71
     0
 10
0.0
 20
0.0
 11
279.4
 21
215.9
 12
0.0
 22
0.0
 32
0.0
 14
0.0
 24
0.0
 34
0.0
 15
279.4
 25
215.9
 35
0.0
146
0.0
 13
0.0
 23
0.0
 33
0.0
 16
1.0
 26
0.0
 36
0.0
 17
0.0
 27
1.0
 37
0.0
 76
     0
330
1F
331
29
  0
MLINESTYLE
  5
18
102
{ACAD_REACTORS
330
17
102
}
330
17
100
AcDbMlineStyle
  2
Standard
 70
     0
  3

 62
   256
 51
90.0
 52
90.0
 71
     2
 49
0.5
 62
   256
  6
BYLAYER
 49
-0.5
 62
   256
  6
BYLAYER
  0
ACDBPLACEHOLDER
  5
F
102
{ACAD_REACTORS
330
E
102
}
330
E
  0
SCALE
  5
48
102
{ACAD_REACTORS
330
47
102
}
330
47
100
AcDbScale
 70
     0
300
1:1
140
1.0
141
1.0
290
     1
  0
SCALE
  5
49
102
{ACAD_REACTORS
330
47
102
}
330
47
100
AcDbScale
 70
     0
300
1:2
140
1.0
141
2.0
290
     0
  0
SCALE
  5
4A
102
{ACAD_REACTORS
330
47
102
}
330
47
100
AcDbScale
 70
     0
300
1:4
140
1.0
141
4.0
290
     0
  0
SCALE
  5
4B
102
{ACAD_REACTORS
330
47
102
}
330
47
100
AcDbScale
 70
     0
300
1:5
140
1.0
141
5.0
290
     0
  0
SCALE
  5
4C
102
{ACAD_REACTORS
330
47
102
}
330
47
100
AcDbScale
 70
     0
300
1:8
140
1.0
141
8.0
290
     0
  0
SCALE
  5
4D
102
{ACAD_REACTORS
330
47
102
}
330
47
100
AcDbScale
 70
     0
300
1:10
140
1.0
141
10.0
290
     0
  0
SCALE
  5
4E
102
{ACAD_REACTORS
330
47
102
}
330
47
100
AcDbScale
 70
     0
300
1:16
140
1.0
141
16.0
290
     0
  0
SCALE
  5
4F
102
{ACAD_REACTORS
330
47
102
}
330
47
100
AcDbScale
 70
     0
300
1:20
140
1.0
141
20.0
290
     0
  0
SCALE
  5
50
102
{ACAD_REACTORS
330
47
102
}
330
47
100
AcDbScale
 70
     0
300
1:30
140
1.0
141
30.0
290
     0
  0
SCALE
  5
51
102
{ACAD_REACTORS
330
47
102
}
330
47
100
AcDbScale
 70
     0
300
1:40
140
1.0
141
40.0
290
     0
  0
SCALE
  5
52
102
{ACAD_REACTORS
330
47
102
}
330
47
100
AcDbScale
 70
     0
300
1:50
140
1.0
141
50.0
290
     0
  0
SCALE
  5
53
102
{ACAD_REACTORS
330
47
102
}
330
47
100
AcDbScale
 70
     0
300
1:100
140
1.0
141
100.0
290
     0
  0
SCALE
  5
54
102
{ACAD_REACTORS
330
47
102
}
330
47
100
AcDbScale
 70
     0
300
2:1
140
2.0
141
1.0
290
     0
  0
SCALE
  5
55
102
{ACAD_REACTORS
330
47
102
}
330
47
100
AcDbScale
 70
     0
300
4:1
140
4.0
141
1.0
290
     0
  0
SCALE
  5
56
102
{ACAD_REACTORS
330
47
102
}
330
47
100
AcDbScale
 70
     0
300
8:1
140
8.0
141
1.0
290
     0
  0
SCALE
  5
57
102
{ACAD_REACTORS
330
47
102
}
330
47
100
AcDbScale
 70
     0
300
10:1
140
10.0
141
1.0
290
     0
  0
SCALE
  5
58
102
{ACAD_REACTORS
330
47
102
}
330
47
100
AcDbScale
 70
     0
300
100:1
140
100.0
141
1.0
290
     0
  0
SCALE
  5
59
102
{ACAD_REACTORS
330
47
102
}
330
47
100
AcDbScale
 70
     0
300
1/128" = 1'-0"
140
0.0078125
141
12.0
290
     0
  0
SCALE
  5
5A
102
{ACAD_REACTORS
330
47
102
}
330
47
100
AcDbScale
 70
     0
300
1/64" = 1'-0"
140
0.015625
141
12.0
290
     0
  0
SCALE
  5
5B
102
{ACAD_REACTORS
330
47
102
}
330
47
100
AcDbScale
 70
     0
300
1/32" = 1'-0"
140
0.03125
141
12.0
290
     0
  0
SCALE
  5
5C
102
{ACAD_REACTORS
330
47
102
}
330
47
100
AcDbScale
 70
     0
300
1/16" = 1'-0"
140
0.0625
141
12.0
290
     0
  0
SCALE
  5
5D
102
{ACAD_REACTORS
330
47
102
}
330
47
100
AcDbScale
 70
     0
300
3/32" = 1'-0"
140
0.09375
141
12.0
290
     0
  0
SCALE
  5
5E
102
{ACAD_REACTORS
330
47
102
}
330
47
100
AcDbScale
 70
     0
300
1/8" = 1'-0"
140
0.125
141
12.0
290
     0
  0
SCALE
  5
5F
102
{ACAD_REACTORS
330
47
102
}
330
47
100
AcDbScale
 70
     0
300
3/16" = 1'-0"
140
0.1875
141
12.0
290
     0
  0
SCALE
  5
60
102
{ACAD_REACTORS
330
47
102
}
330
47
100
AcDbScale
 70
     0
300
1/4" = 1'-0"
140
0.25
141
12.0
290
     0
  0
SCALE
  5
61
102
{ACAD_REACTORS
330
47
102
}
330
47
100
AcDbScale
 70
     0
300
3/8" = 1'-0"
140
0.375
141
12.0
290
     0
  0
SCALE
  5
62
102
{ACAD_REACTORS
330
47
102
}
330
47
100
AcDbScale
 70
     0
300
1/2" = 1'-0"
140
0.5
141
12.0
290
     0
  0
SCALE
  5
63
102
{ACAD_REACTORS
330
47
102
}
330
47
100
AcDbScale
 70
     0
300
3/4" = 1'-0"
140
0.75
141
12.0
290
     0
  0
SCALE
  5
64
102
{ACAD_REACTORS
330
47
102
}
330
47
100
AcDbScale
 70
     0
300
1" = 1'-0"
140
1.0
141
12.0
290
     0
  0
SCALE
  5
65
102
{ACAD_REACTORS
330
47
102
}
330
47
100
AcDbScale
 70
     0
300
1-1/2" = 1'-0"
140
1.5
141
12.0
290
     0
  0
SCALE
  5
66
102
{ACAD_REACTORS
330
47
102
}
330
47
100
AcDbScale
 70
     0
300
3" = 1'-0"
140
3.0
141
12.0
290
     0
  0
SCALE
  5
67
102
{ACAD_REACTORS
330
47
102
}
330
47
100
AcDbScale
 70
     0
300
6" = 1'-0"
140
6.0
141
12.0
290
     0
  0
SCALE
  5
68
102
{ACAD_REACTORS
330
47
102
}
330
47
100
AcDbScale
 70
     0
300
1'-0" = 1'-0"
140
12.0
141
12.0
290
     0
  0
ENDSEC
  0
EOF
